Tv Themes - Caballeros Del Zodiaco Chords & Tabs

 

Caballeros Del Zodiaco Chords & Tabs

Tv Themes Chords & Tabs

Version: 2 Type: Tab 0 ratings
1 star 2 stars 3 stars 4 stars 5 stars
comments

Caballeros Del Zodiaco Tab

Caballeros del Zod├Čaco


Intro:

           
      |--------------------------|--------------------
      |--------------------------|--------------------
      |--------------------------|--------------------
      |------3-2-----------------|------3-2-----------
      |-2-5------4-4-5-4-2-4-2-2-|-2-5------4-4-5~-4~-
      |--------------------------|--------------------      

      |--------------------------|--------------------
      |--------------------------|--------------------
      |--------------------------|--------------------
      |------3-2-----------------|------3-2-----------
      |-2-5------4-4-5-4-2-4-2-2-|-2-5------4-4-5~----
      |--------------------------|--------------------


Comienza:
 
|--------2-4~-4-2-2---2-------------------2~-2-2-4-4-4-7-8~ 
|-2-4-5-------------5----5-4~--2-4-5~--4-5----------------- 
|----------------------------------------------------------
|---------------------------------------------------------- 
|---------------------------------------------------------- 
|----------------------------------------------------------

[ Tab from: http://www.guitartabs.cc/tabs/t/tv_themes/caballeros_del_zodiaco_tab_ver_2.html ]
|--------2-4~-4-2-2----2-------------------4-2------------- 
|-2-4-5-------------5----5-4~--2-4-5-4-2-5-----5-4-4-0-2~-- 
|----------------------------------------------------------
|---------------------------------------------------------- 
|---------------------------------------------------------- 
|----------------------------------------------------------

|-5-4-4-2-4-2-2--2-7-5-4-2-2---------------------2-----2---
|----------------------------5--2-4-5-4-2-5--4-5---5-4-----
|----------------------------------------------------------
|----------------------------------------------------------
|----------------------------------------------------------
|----------------------------------------------------------

|-------------|---2-4-4~-4-4-2--------4~-----2-2~--2-7-5-4-
|-0-0-0-1-2-4~|-5--------------5-4-2-----4-5---------------
|-------------|--------------------------------------------
|-------------|--------------------------------------------
|-------------|--------------------------------------------
|-------------|--------------------------------------------

|-2-4~---2-4~-|---2-4-4~-4-4-2-------4~------2-2-----2-2~--
|------5------|5---------------5-4-2-----4-5-----4-5-------
|-------------|--------------------------------------------
|-------------|--------------------------------------------
|-------------|--------------------------------------------
|-------------|--------------------------------------------

|-5-4-2-4~-
|----------
|----------
|----------
|----------
|----------
Comments