Turn - Too Much Make Up Chords & Tabs

 

Too Much Make Up Chords & Tabs

Turn Chords & Tabs

Version: 1 Type: Tab 0 ratings
1 star 2 stars 3 stars 4 stars 5 stars
comments

Too Much Make Up Tab

   
#----------------------------------PLEASE NOTE---------------------------------#
#This file is the author's own work and represents their interpretation of the #
#song. You may only use this file for private study, scholarship, or research. #
#------------------------------------------------------------------------------#

Artist: Turn
Song: Too Much Make Up
Album: Antisocial
Tabbed by: Robert Corcoran

Hi this is Rob who played guitar with Turn in the Village, so you asked for this and I tabbed it (Guitar and bass). It’s note perfect though Ollie may play the same note somewhere else, but it’s still the same note! Anyways this is how to play the classic Too Much Make Up, it’s more than just A and E as some knob jockey said. enjoy…

Guitar:

Verse 1
e-----------------------------------------------
b-----------------------------------------------
g-9--9—-9--9—-9—-9-—9—-9—-9—-9—-9--9—-9—-9—-9--9
d-x--x--x--x—-x—-x—-x—-x—-x—-x--x—-x—-x—-x—-x--x
a-7--7--7--7—-7—-7—-7—-7—-7—-7—-7—-7—-7—-7—-7—-7    etc.
e----------------------------------------------- 

Don’t expect a warning now, but don’t expect a warning when I come.
Don’t expect a warning now, but don’t expect a warning…


e-----------------------------------------------
b-----------------------------------------------
g-14-14-14-14-14-14—14-14-14-14-14-14-14-14-14-14
d-x--x--x--x—-x—-x—-x—-x—-x—-x--x—-x—-x—-x—-x--x
a-0--0--0--0—-0—-0—-0—-0—-0—-0—-0—-0—-0—-0—-0—-0    
e-----------------------------------------------

When I caaaaaaaaaaaaaaaaaauuuummmmmmmmmmmmmmmm

e-----------------------------------------------
b-----------------------------------------------
g-9--9—-9--9—-9—-9-—9—-9—-9—-9—-9--9—-9—-9—-9--9
d-x--x--x--x—-x—-x—-x—-x—-x—-x--x—-x—-x—-x—-x--x
a-7--7--7--7—-7—-7—-7—-7—-7—-7—-7—-7—-7—-7—-7—-7    etc.
e-----------------------------------------------

When I come. (Exactly the same for the “Don’t it make it easy…” part. Then>>

With Distortion e—0-
                b-0-
                g--- 
                d---
                a---  
                e---

Chorus 1: With copious amounts of distortion and attitude, 
Repeat as many times as you need to:
e---------------------------------0------------------------
b-2-2-2-2-2-2-2-2-2-2-2-2-2-2-2-2-0------------------------
g-2-2-2-2-2-2-2-2-2-3-3-3-3-4-4-4-1---------1-1---------1-1
d-2-2-2-2-2-2-2-2-2-2-2-2-2-2-2-2-2-0-------2-2-0-------2-2
a-0-0-0-0-0-0-0-0-0-0-0-0-0-0-0-0-2---2-0---2-2---2-0---2-2
e---------------------------------0-------3-0-0-------3-0-0
 
You’ve got too much make up on,   OHHH YEAH!!!

Post Chorus: Guitar only (still distorted)
e-----------------------------------------------
b-----------------------------------------------
g-9--9--11--11--12--12--5--5--5--5--4--4--------
d-x--x--x--—x—--x—--x---x--x--x--x--5--5--------
a-7--7--9---9---10--10—-3--3--3--3--5--5--------
e-----------------------------------3--3--------

Verse 2: Exactly the same as verse one except a second guitar comes in when Ollie sings “When I Neeeeeeeeeed, when I need” it plays this simple riff:

e---------------------
b---------------------
g-----4-6-7-6-4-------
d-5-7-----------7-6---
a-------------------7-
e---------------------

With Distortion e—12-
                b-12-
                g-12- 
                d----
                a----  
                e----


Chorus 2: Once again with ample distortion, 
Repeat as many times as you need to:
e---------------------------------0------------------------
b-2-2-2-2-2-2-2-2-2-2-2-2-2-2-2-2-0------------------------
g-2-2-2-2-2-2-2-2-2-3-3-3-3-4-4-4-1---------1-1---------1-1
d-2-2-2-2-2-2-2-2-2-2-2-2-2-2-2-2-2-0-------2-2-0-------2-2
a-0-0-0-0-0-0-0-0-0-0-0-0-0-0-0-0-2---2-0---2-2---2-0---2-2
e---------------------------------0-------3-0-0-------3-0-0
 
You’ve got too much make up on,   OHHH YEAH!!!
[ Tab from: http://www.guitartabs.cc/tabs/t/turn/too_much_make_up_tab.html ]
Post chorus:
e-----------------------------------------0---0-
b-----------------------------------------0---0-
g-9--9--11--11--12--12--5--5--5--5--4--4--1---1-  Let the E ring 
d-x--x--x--—x—--x—--x---x--x--x--x--5--5--2---2-  with feedback.
a-7--7--9---9---10--10—-3--3--3--3--5--5--2---2-
e-----------------------------------3--3--0---0-

Break:
This is the bit Ollie stole from the pixies song River Euphrates on the album Surfer Rosa. This is also when I took over on guitar in the Village that night (Oh the memories!!!). Not exactly sure what goes on with respect to the guitar here. I’ll just show you what I play. (Initially on one string the when the band comes in (I’m not sure if it’s an octave below or a harmony) on two strings like this:

e-----------------------------------------------
b-----------------------------------------------
g-8-9-8-9-8-9-8-9-8-9-8-9-8-9-8-9-8-9-8-9-9-9-9-
d-------------------------8-9-8-9-8-9-8-9-9-9-9-
a-----------------------------------------------
e-----------------------------------------------

Ah ee aye aye aye etc…    AH EE AYE AYE AYE WOOOOH.

Chorus 3:
Same as chorus’ one and two BUT crucially the second guitar comes in again an plays this little ascending riff while guitar one plays the A major chord it… ah screw it I’ll put guitar one on top and guitar two on the bottom. If you can’t understand what I mean… you’re a knob jockey!
Guitar 1
e---------------------------------0------------------------
b-2-2-2-2-2-2-2-2-2-2-2-2-2-2-2-2-0------------------------
g-2-2-2-2-2-2-2-2-2-3-3-3-3-4-4-4-1---------1-1---------1-1
d-2-2-2-2-2-2-2-2-2-2-2-2-2-2-2-2-2-0-------2-2-0-------2-2
a-0-0-0-0-0-0-0-0-0-0-0-0-0-0-0-0-2---2-0---2-2---2-0---2-2
e---------------------------------0-------3-0-0-------3-0-0
Guitar 2
e---------------------------------0------------------------
b---------------------------------0------------------------
g-9-9-11-11-12-12-14-14-14/16-16--1---------1-1---------1-1
d-x-x-x--x--x--x--x--x--x-/x—-x---2-0-------2-2-0-------2-2
a-7-7-9--9--10-10-12-12-12/14-14--2---2-0---2-2---2-0---2-2
e---------------------------------0-------3-0-0-------3-0-0

You’ve got too much make up on,   OHHH YEAH!!!

End just before you would normally strike the E major chord as Ollie screams “OONNNNNNNNNN”

I can’t explain it any easier than that. 

Bass:
Pretty easy too you’ll have to listen to the song to get the rhythm as there’s a pause in the verse. 

Verse 1
g-----------------------------------------------
d-----------------------------------------------
a---5-7—(Little Pause)------(Little Pause, repeat)
e-0-------------------0-3-0---------------------

Last time before the chorus play:
g-----------------------------------------------
d-----------------------------------------------
a-14-----12-14-12-----------5-7-----------------
e-------------------------0------------0-3-0----

Chorus 1
Follows the guitar,
g------------------------------------------------------
d------------------------------------------------------
a-0-0-0-0-0-(lots of times)--5--------------5----------
e--------------------------0---7-5-3-0-0--0---7-5-3-0-0

Verse 2: Same as verse one,
Chorus 2: Same as chorus one, then comes the break:

After the second chorus is through let the E note ring out then when Oliver starts to go Ah ee ah ee play this as the crescendo builds:

g----------------------------------------------------------------
d----------------------------------------------------------------
a----------------------------------------------------------------
e-0-0-0-0-0-0-0-0-3-3-3-3-3-3-3-3-5-5-5-5-5-5-5-5-(back to start)

Last time play this and then go back to your chorus part til the end.

g----------------------------------------------------------------
d----------------------------------------------------------------
a-------------------------------------------------7-7-7-7-7-7-7-7
e-0-0-0-0-0-0-0-0-3-3-3-3-3-3-3-3-5-5-5-5-5-5-5-5----------------

And there you have it. A tab for guitar and bass. If there are any corrections, gifts or good-looking sisters for me you can contact me via my e-mail: inthenameofbob@hotmail.com. Grá mor, peace out…
Comments