Turn - Summer Song Chords & Tabs

 

Summer Song Chords & Tabs

Turn Chords & Tabs

Version: 1 Type: Tab 0 ratings
1 star 2 stars 3 stars 4 stars 5 stars
comments

Summer Song Tab

   
#----------------------------------PLEASE NOTE---------------------------------#
#This file is the author's own work and represents their interpretation of the #
#song. You may only use this file for private study, scholarship, or research. #
#------------------------------------------------------------------------------#

Artist: Turn
Track: Beretta
Album: Antisocial
Tabbed by: Robert Corcoran

I’ve seen some poor attempts at this but fear not I’ll try to make amends enjoy…
 
Verse 1: Electric guitar (clean)
e----------------------------------------------------------------------|
b----------------------------------------------------------------------|
g----------------------------------------------------------------------|
d----------------------------------------------------------------------|
a-4-4-4-4-4-4-4-4-----------------0-0-0-0-0-0-0-0----------------------|
e-----------------2-2-2-2-2-2-2-2-----------------4-4-4-4-4-4-4-4-4----|

Sometimes Ollie throws in this little progression at the end…
e----------------------------------------------------------------------|
b----------------------------------------------------------------------|
g----------------------------------------------------------------------|
d----------------------------------------------------------------------|
a-4-4-4-4-4-4-4-4-----------------0-0-0-0-0-0-0-0-----------2-2-2------|
e-----------------2-2-2-2-2-2-2-2-----------------4-4-4-4-4------------|

Chorus: Repeat what’s inside the lines twice… 

WHY CAN’T YOU LOOK AFTER YOURSELF…
         F#               E    C#m
e--------2----------------0---|-----------------------------------------|
b--------2----------------0---|-5-5-------------------------------------|
g--------3----------------1---|-6-6--9-9-11-11-12-12-11-11-11-11-9-9-9-9|
d--------4----------------2---|-6-6--x-x-x--x--x--x--x—-x--x--x--x-x-x-x|
a--------4----------------2---|-4-4--7-7-9--9--10-10-9—-9--9--9--7-7-7-7|
e--------2----------------0---|-----------------------------------------|

…cuz it’s always you and me…

Post Chorus: 
e-16----16----16----16--------|
b----14----14----14----14-----|
g-----------------------------|
d-----------------------------|
a-----------------------------|
e-----------------------------|


Verse 2:
e----------------------------------------------------------------------|
b----------------------------------------------------------------------|
g----------------------------------------------------------------------|
d-3-3-3-3-3-3-3-3------------------------------------------------------|
a-4-4-4-4-4-4-4-4-4-4-4-4-4-4-4-4-4-4-4-4-4-4-4-4-3-3-3-3-3-3-3-3-3----|
e-----------------2-2-2-2-2-2-2-2-5-5-5-5-5-5-5-5-4-4-4-4-4-4-4-4-4----|

Last time play it this way…
e----------------------------------------------------------------------|
b----------------------------------------------------------------------|
g----------------------------------------------------------------------|
d-3-3-3-3-3-3-3-3------------------------------------------------------|
a-4-4-4-4-4-4-4-4-4-4-4-4-4-4-4-4-7-7-7-7-7-7-7-7-3-3-3-3-3-3-3-3-3----|
e-----------------2-2-2-2-2-2-2-2-5-5-5-5-5-5-5-5-4-4-4-4-4-4-4-4-4----|

Chorus 2 is the same as chorus 1 except instead of a post chorus there’s this…
e|-------------------------------|  |e-----------------------------------| 
b|-------------------------------|  |b-9-9-9-9-9-9-9-9-7-7-7-7-7-7-7-7---|
g|9-9-9-9-9-9-9-9-8-8-8-8-8-8-8-8|x2|g-9-9-9-9-9-9-9-9-8-8-8-8-8-8-8-8---|x2
d|-------------------------------|  |d-----------------------------------|
a|-------------------------------|  |a-----------------------------------|
e|-------------------------------|  |e-----------------------------------|

Then Guitar 1 plays this twice   Guitar 2 plays this over it and continues over…
e|-------------------------|     |e-16----16----16----16----16----|
b|-5-5---------------------|     |b----14----14----14----14----14-|
g|-6-6--9-9-11-11-12-12-12-|     |g-------------------------------|
d|-6-6--x-x-x--x--x--x--x—-|     |d-------------------------------|
a|-4-4--7-7-9--9--10-10-10-|     |a-------------------------------|
e|-------------------------|     |e-------------------------------|


WHY CAN’T YOU LOOK AFTER YOURSELF…

Then play the chorus twice before returning to this…
e|-------------------------|     |e-16----16----16----16----16----|
b|-5-5---------------------|     |b----14----14----14----14----14-|
g|-6-6--9-9-11-11-12-12-12-|     |g-------------------------------|
d|-6-6--x-x-x--x--x--x--x—-|     |d-------------------------------|
a|-4-4--7-7-9--9--10-10-10-|     |a-------------------------------|
e|-------------------------|     |e-------------------------------|

This is played a few times and it ends like…
e|-------------------------|     
b|-5-5---------------------|
g|-6-6--9-9-9-11-----------|    
d|-6-6--x-x-x-x------------|    
a|-4-4--7-7-7-9------------|     
e|-------------------------|    
Why can’t you look out?
[ Tab from: http://www.guitartabs.cc/tabs/t/turn/summer_song_tab.html ]
And that’s about it. If there are any corrections, gifts or good-looking sisters for me you can contact me via my e-mail: inthenameofbob@hotmail.com. Grá mor, peace out…
Artist: Turn
Track: Summer Song
Album: Forward (Released end of May 2003)
Tabbed by: Robert Corcoran

OK this song is actually played with the guitar tuned down one whole step. But could you be arsed tuning it down for one song (Or three if you’re playing the Turn back catalogue)?… I thought not, here’s how to do it in concert pitch, a second guitar plays the fills but I’ll write them out anyway cuz it breaks the monotony of the chords and I’m just that nice a guy. Enjoy…  

The chords used:
    Gm     G#     D      F     C     Eb     Bb
e---3------4------5------1-----3-----6------1-
b---3------4------7------1-----5-----8------3-
g---3------5------7------2-----5-----8------3-
d---5------6------7------3-----5-----8------3-
a---5------6------5------3-----3-----6------1-
E---3------4-------------1--------------------

Fill (The notes in brackets are not played the last times)
e----------------------------
b------------------------(8)-
g-\7-5-----------(7)--------- 
d------8-7-5---5-----(5)-----
a------------8---------------
E----------------------------


Intro: Acoustic guitar.

Gm for 2 bars

Verse 1
G#          D              Gm      F 
She put her hands over her face so I couldn’t see,
G#          D                  Gm     F
The way she looked as I walked in and she prepared to leave, 
G#       D                  Gm           F                C
I wasn’t sure just what you done but you couldn’t look at me
   Eb          D
So I think you done it  (Pause)

Chorus 1
         Eb              D             Gm         F      C
You took something oh so beautiful and sweet as a summer song
    Eb          D            Gm  Bb Gm
And I think you done her wrong

Verse 2
G#                D                   Gm        F                               
In this scene the phone rings out and she moves for the door
G#          D                Gm      F                               
I watch you standing up your eyes go red and sore
G#           D    (Fill)    Gm        F                               
AHHHHH AHHH AHHHH AHHHHH
Eb              D
And I think you done it

Chorus 2
         Eb              D             Gm         F      C (Fill 2)
You took something oh so beautiful and sweet as a summer song
    Eb          D        Gm 
And I think you done her wrong   (pause)

Middle 8:
Gm    Bb    C           Eb
        Yes I think you done her wrong
Gm    Bb    C           Eb
        Yes I think you done it
Solo
 Gm     Bb    C      Eb          Gm    Bb    C     Eb  
e-------------------------------------------------------
b-8b----------------------------------------------------
g-------7b----5b-----5h7-5---------------5-----7---8-7--
d--------------------------8-5---5-8-5-7---7-8---8------
a------------------------------8------------------------
E-------------------------------------------------------

Chorus 2
         Eb              D             Gm         F      C (Fill)
You took something oh so beautiful and sweet as a summer song
    Eb          D            
And I think you done her…   
         Eb              D             Gm         F      C (Fill)
You took something oh so beautiful and sweet as a summer song
    Eb          D        Eb          D        Eb              D
And I think you done it, I think you done it, yes I think you done 
    Gm
her wrong

Outro: Because we’re playing a guitar in concert pitch we cannot get the low notes on the recording that Ollie does so we’re taking it up an octave people…
    Gm        F          C                 Eb    D
e-------10---------8--------------8------------6-----5---
b-------11---------10---------8-----8----------8----7----
g-------12---------10-----------9-----9--------8---7-----
d----12----12---10----10---10-----------10---8----7------
a-10----------8----------------------------6-----5-------
E------------------------8-------------------------------

Ooooo Ooooo Ooo Oo Oo Oo Ooo Ooooo Oooo Oo Oo Ooo Ooooooooo.   

And Voilá I’m (Bob) your uncle. Great song, Great band, Great tab??? Went for on too mant there but you know how it is. If there are any corrections, gifts or good-looking sisters for me you can contact me via my e-mail: inthenameofbob@hotmail.com. Grá mor, peace out… 
Comments