Turin Brakes - Pain Killer Chords & Tabs

 

Pain Killer Chords & Tabs

Turin Brakes Chords & Tabs

Version: 1 Type: Tab 0 ratings
1 star 2 stars 3 stars 4 stars 5 stars
comments

Pain Killer Tab

Hi every one! This is my first tab so go easy on it. It's pretty rubish coz so
far i ave only found out the beggining of this song. Watch this space becoz the
rest IS comin SOON!

Band: Turin Brakes
Song:Pain Killer
[ Tab from: http://www.guitartabs.cc/tabs/t/turin_brakes/pain_killer_tab.html ]
E----------0--3-----3--3||    Repeat as necessary
B----------2--3-----3--3||
G-----2----2--4-----4--4||
D---2---2--2--5-----5--5||
A-0--------0--5-----5--5||
E----------0--3--3--3--3||

                    OR

E----------3--1----1||
B----------3--1----1||
G-----5----4--2----2||
D---5---5--5--3----3||
A-3--------5--3----3||
E----------3--1--1-1||

    I will put the reat of it up when i find it out!

                         Don
Comments