Turin Brakes - Fishing For A Dream Chords & Tabs

 

Fishing For A Dream Chords & Tabs

Turin Brakes Chords & Tabs

Version: 1 Type: Tab 0 ratings
1 star 2 stars 3 stars 4 stars 5 stars
comments

Fishing For A Dream Tab

   
			     Fishing for a Dream - Turin Brakes
-------------------------------------------------------------------------------
Tabbed by: Robert Challens and Richard J. Thornton
Email: email and comments and queries to tijuanakronik@hotmail.com
this may or not be 100% correct .. but am sure of it infact Horsley owns.
Tuning:Standard
                C                      Am
e|--4-4---2-2---0-0---0-0---0-0---2-2---0-0-0h3----------------------|
B|---------------1-----1-----1-------------1-------------------------|
G|---4-----2-----0-----0-----0-----2-----2---------------------------|
D|-2-----0-------2-----0h2---2---0-----2-----------------------------|
A|-------------3-----3-----3-----------------------------------------|
E|-------------------------------------------------------------------|
    C          C D C G Am C
e|--0-0---2-2--0-2-0-3-0--0-------------------------------------------|
B|---1---------1-3-1-3-1--1-------------------------------------------|
G|---0-----2---0-2-0-0-2--0-------------------------------------------|
D|---2---0-----2-0-2-0-2--2-------------------------------------------|
A|-3-----------3---3-2-0--3-------------------------------------------|
E|-------------0---0-3-0--0-------------------------------------------|
[ Tab from: http://www.guitartabs.cc/tabs/t/turin_brakes/fishing_for_a_dream_tab.html ]
Comments