Turbonegro - Wipe It Till It Bleeds Chords & Tabs

 

Wipe It Till It Bleeds Chords & Tabs

Turbonegro Chords & Tabs

Version: 1 Type: Tab 0 ratings
1 star 2 stars 3 stars 4 stars 5 stars
comments

Wipe It Till It Bleeds Tab

----------------------------------------------------------------------------
		  Turbonegro - Wipe it till it bleeds
----------------------------------------------------------------------------
[ Tab from: http://www.guitartabs.cc/tabs/t/turbonegro/wipe_it_till_it_bleeds_tab.html ]
Tabbed by: Plastic man in hi-fi
Email: plasticman56@hotmail.com
Tuning: as long as it tuned
  
One guitar plays this throughout the intro
    
                                            
        
                                       
           |                  |
e|---------|------------------|--------------------------------------------|
B|---------|------------------|--------------------------------------------|
G|------777777-7-7-79-----5-555555-5-5-57----------------------------------|
D|------777777-7-7-79-----5-555555-5-5-57----------------------------------|
A|------555555-5-5-57-----3-333333-3-3-35----------------------------------|
E|--(0)---------------(0)--------------------------------------------------|

 The other guitar does this over it. (listen to song to find out when)
e|-------------------------------------------------------------------------|
B|--5/(3)dragout for a while the pull off----------------------------------|
G|-------------------------------------------------------------------------|
D|-------------------------------------------------------------------------|
A|-------------------------------------------------------------------------|
E|-------------------------------------------------------------------------|


   'Turbonegro must be destroyed!!'
Comments