Turbonegro - Train Of Flesh Chords & Tabs

 

Train Of Flesh Chords & Tabs

Turbonegro Chords & Tabs

Version: 1 Type: Tab 0 ratings
1 star 2 stars 3 stars 4 stars 5 stars
comments

Train Of Flesh Tab

                  Train of Flesh by: Turbonegro
tabbed by:Anti-Wise

Tuning:standard
[ Tab from: http://www.guitartabs.cc/tabs/t/turbonegro/train_of_flesh_tab.html ]
Intro
e|---------------------------------------------------------------------------|
B|---------------------------------------------------------------------------|
G|-------------8-3-3-3-3-3---------------------------------------------------|
D|-5-5-5-8-8-8-8-3-3-3-3-3---------------------------------------------------|
A|-5-5-5-8-8-8-6-5-5-5-5-5---------------------------------------------------|
E|-3-3-3-6-6-6---------------------------------------------------------------|

Verse
e|---------------------------------------------------------------------------|
B|---------------------------------------------------------------------------|
G|-------------8-3-3-3-3-3---------------------------------------------------|
D|-5-5-5-8-8-8-8-3-3-3-3-3---------------------------------------------------|
A|-5-5-5-8-8-8-6-5-5-5-5-5---------------------------------------------------|
E|-3-3-3-6-6-6---------------------------------------------------------------|
Comments