Turbonegro - Selfdestructobust Chords & Tabs

 

Selfdestructobust Chords & Tabs

Turbonegro Chords & Tabs

Version: 1 Type: Tab 0 ratings
1 star 2 stars 3 stars 4 stars 5 stars
comments

Selfdestructobust Tab

   

Turbonegro: Selfdestructobust

Tabbed by Josh Dickey

	Part a

	------------------------------------------------------------
	------------------------------------------------------------
	-7-7-7-7-7-7-7-7--10-10-10--7--7-7-7------------------------
	-7-7-7-7-7-7-7-7--10-10-10--7--7-7-7------------------------
	-5-5-5-5-5-5-5-5--8--8--8---5--5-5-5------------------------
	------------------------------------------------------------


        ------------------------------------------------------------
	------------------------------------------------------------
	-5-5-5-5-5-5-5-5------------5--5-5-5------------------------
	-5-5-5-5-5-5-5-5--10-10-10--5--5-5-5------------------------
	-3-3-3-3-3-3-3-3--8--8--8---3--3-3-3------------------------
	------------------------------------------------------------


        ------------------------------------------------------------
	------------------------------------------------------------
	-3-3-3-3-3-3-3-3--10-10-10--5--5-5-5--7-7-7-7-7-7-7-7-7-----
	-3-3-3-3-3-3-3-3--10-10-10--5--5-5-5--7-7-7-7-7-7-7-7-7-----
	-1-1-1-1-1-1-1-1--8--8--8---3--3-3-3--5-5-5-5-5-5-5-5-5-----
        ------------------------------------------------------------

	Part b

        ------------------------------------------------------------
	------------------------------------------------------------
	-7--5---7-7-7-7-7-7-7-7-7-7-7-7-7-7-7-7---------------------
	-7--5---7-7-7-7-7-7-7-7-7-7-7-7-7-7-7-7--5-5-5-5-5-5-5-5----
	-5--3---5-5-5-5-5-5-5-5-5-5-5-5-5-5-5-5--5-5-5-5-5-5-5-5----
	-----------------------------------------3-3-3-3-3-3-3-3----

[ Tab from: http://www.guitartabs.cc/tabs/t/turbonegro/selfdestructobust_tab.html ]
	------------------------------------------------------------
	------------------------------------------------------------
	-3-3-3------------------------------------------------------
	-3-3-3------------------------------------------------------
	-1-1-1------------------------------------------------------
	------------------------------------------------------------

	Part c

	------------------------------------------------------------
	------------------------------------------------------------
	-3-3-3-3-3-3-3-3--5-5-5-5-5-5-5-5--7-7-7-7-7-7-7-7-7--------
	-3-3-3-3-3-3-3-3--5-5-5-5-5-5-5-5--7-7-7-7-7-7-7-7-7--------
	-1-1-1-1-1-1-1-1--3-3-3-3-3-3-3-3--5-5-5-5-5-5-5-5-5--------
	------------------------------------------------------------

	Part d

	------------------------------------------------------------
	------------------------------------------------------------
	------------------------------------------------------------
	-5--------7-------10------12--------------------------------
	-5--------7-------10------12--------------------------------
	-3------- 5-------8-------10--------------------------------

	Guitar 2
	
	------------------------------------------------------------
	------------------------------------------------------------
	------------------------------------------------------------
	-12p10--12p10--12p10--12p10--12p10--12p10--12p10------------
	--------------------------------------------------12--------
	------------------------------------------------------------


	------------------------------------------------------------
	------------------------------------------------------------
	------------------------------------------------------------
	------------------------------------------------------------
	------------------------------------------------------------
	------------------------------------------------------------

	PLayed in this Order:
	
	Part a x2

	
	Part b x2

	Part a 

	Part c

	
	Part b x2

	part a

	Part c

	
	Part b x2

	part a

	Part c

	
	Part d

	Part d (with Guitar 2)

	Then guitar 1 begins a solo with guitar 2 playing the fill, but i don't know the solo.


Comments