Turbonegro - Rendezvous With Anus Chords & Tabs

 

Rendezvous With Anus Chords & Tabs

Turbonegro Chords & Tabs

Version: 1 Type: Tab 0 ratings
1 star 2 stars 3 stars 4 stars 5 stars
comments

Rendezvous With Anus Tab

   
Turbonegro - Rendezvous with anus (from Apocalypse Dudes)

intro 1X

  E5               G5               Bb5              G5
E----------------------------------------------------------------------
B----------------------------------------------------------------------
G----------------------------------------------------------------------
D-2-2-2-2-2-2-2-2--5-5-5-5-5-5-5-5--8-8-8-8-8-8-8-8--5-5-5-5-5-5-5-5---
A-2-2-2-2-2-2-2-2--5-5-5-5-5-5-5-5--8-8-8-8-8-8-8-8--5-5-5-5-5-5-5-5---
E-0-0-0-0-0-0-0-0--3-3-3-3-3-3-3-3--6-6-6-6-6-6-6-6--3-3-3-3-3-3-3-3---

  E5(let ring)     G5(let ring)     Bb5(let ring)    A5              G5
E----------------------------------------------------------------------
B----------------------------------------------------------------------
G----------------------------------------------------------------------
D-2----------------5----------------8----------------7-7-7-7-7-7-7-7-5-
A-2----------------5----------------8----------------7-7-7-7-7-7-7-7-5-
E-0----------------3----------------6----------------5-5-5-5-5-5-5-5-3-

verse 4X
[ Tab from: http://www.guitartabs.cc/tabs/t/turbonegro/rendezvous_with_anus_tab.html ]
  A5       C5       F5       G5   D5
E-----------------------------------
B-----------------------------------
G----------5-5-5-5----------------7-
D-7-7-7-7--5-5-5-5--3-3-3-3--5-5--7-
A-7-7-7-7--3-3-3-3--3-3-3-3--5-5--5-
E-5-5-5-5-----------1-1-1-1--3-3----

pre-chorus 2X
  
  G5               A5               F5
E---------------------------------------------------------------
B---------------------------------------------------------------
G---------------------------------------------------------------
D-5-5-5-5-5-5-5-5--7-7-7-7-7-7-7-7--3-3-3-3-3-3-3-3-3-3-3-3-3-3-
A-5-5-5-5-5-5-5-5--7-7-7-7-7-7-7-7--3-3-3-3-3-3-3-3-3-3-3-3-3-3-
E-3-3-3-3-3-3-3-3--5-5-5-5-5-5-5-5--1-1-1-1-1-1-1-1-1-1-1-1-1-1-

chorus 2x

  A5       C5       F5       G5
E------------------------------------
B------------------------------------
G----------5-5-5-5-------------------
D-7-7-7-7--5-5-5-5--3-3-3-3--5-5-5-5-
A-7-7-7-7--3-3-3-3--3-3-3-3--5-5-5-5-
E-5-5-5-5-----------1-1-1-1--3-3-3-3-

then

verse      4X
pre-chorus 2X
chorus     2X
solo (this is my first tab, no way i'm gonna tab that)
verse      4X
pre-chorus 2X
chorus     2X

Any comments or corrections? Send e-mail to cheez@jippii.fi
Comments