Turbonegro - Get It On Chords & Tabs

 

Get It On Chords & Tabs

Turbonegro Chords & Tabs

Version: 3 Type: Tab 0 ratings
1 star 2 stars 3 stars 4 stars 5 stars
comments

Get It On Tab

   
-------------------------------------------------------------------------------
			     Get it On - Turbonegro
-------------------------------------------------------------------------------
Tabbed by:Anti-wise Jonathan Fitzpatrick
Email:Loserkid0908@wmconnect.com

Tuning:Standard

| { }  trill
| /  slide up
| \  slide down
| h  hammer-on
| p  pull-off
| ~  vibrato
| +  harmonic
| x  Mute note
| b  bend


Intro pt 1
Rhythem
e|-------------------------------------------------------------------------|
B|----------------------------------------------------------------7-9------|
G|-9-9-9-9-9---5-5-5-5-5-10-9-9-9-9-9---5-5-5-5-5-10------------9-7-9------|
D|-9-9-9-9-9-7-5-5-5-5-5-10-9-9-9-9-9-7-5-5-5-5-5-10------------9-5-7------|
A|-7-7-7-7-7-7-3-3-3-3-3--8-7-7-7-7-7-7-3-3-3-3-3--8-pick-slide-7----------|
E|-----------5------------------------5------------------------------------|

Intro pt 2
Rhythem
e|----------------------------------------------------------|
B|------------------------------------------------------7-9-|
G|-9-9-9-9-9---5-5-5-5-5-10-9-9-9-9-9---5-5-5-5-5-10--9-7-9-|
D|-9-9-9-9-9-7-5-5-5-5-5-10-9-9-9-9-9-7-5-5-5-5-5-10--9-5-7-|
A|-7-7-7-7-7-7-3-3-3-3-3--8-7-7-7-7-7-7-3-3-3-3-3--8--7-----|
E|-----------5------------------------5---------------------|

Intro pt 2
Lead
e|-----------12-10-12h-12-10-12h-12-10-12h-128-9b-8-9b--|
B|------------------------------------------------------|
G|-1-3-5-8-9--------------------------------------------|
D|------------------------------------------------------|
A|------------------------------------------------------|
E|------------------------------------------------------|

e|-{12-10-12-10-12-10-12-10-12-10-12-10-12-10-12-10-12}------------------------|
B|-----------------------------------------------------12b-12b-12b-12b-10-12---|
G|-----------------------------------------------------------------------------|
D|-----------------------------------------------------------------------------|
A|-----------------------------------------------------------------------------|
E|-----------------------------------------------------------------------------|

Verse
Rhythem
e|----------------------------------------------------------|
B|----------------------------------------------------------|
G|-9-9-9-9-9---5-5-5-5-5-10-9-9-9-9-9---5-5-5-5-5-10--9-----|
D|-9-9-9-9-9-7-5-5-5-5-5-10-9-9-9-9-9-7-5-5-5-5-5-10--9-----|
A|-7-7-7-7-7-7-3-3-3-3-3--8-7-7-7-7-7-7-3-3-3-3-3--8--7-----|
E|-----------5------------------------5---------------------|
[ Tab from: http://www.guitartabs.cc/tabs/t/turbonegro/get_it_on_tab_ver_3.html ]
Chorus
Rhythem
e|--------------------------------------------------------------------------|
B|--------------------------------------------------------------------------|
G|-9-9-9-9-7-7-7-7-----------------9-9-9-9-7-7-7-7--------------------------|
D|-9-9-9-9-7-7-7-7-7-7-7-7-7-7-7-7-9-9-9-9-7-7-7-7-7-7-7-7-7-7-7-7----------|
A|-7-7-7-7-5-5-5-5-7-7-7-7-7-7-7-7-7-7-7-7-5-5-5-5-7-7-7-7-7-7-7-7----------|
E|-----------------5-5-5-5-5-5-5-5-----------------5-5-5-5-5-5-5-5----------|

Chorus
Lead
e|-12-10-12h-12-10-12h-12-10-12h-12------------------------------------------|
B|----------------------------------------------------------------------14b--|
G|-----------------------------------------14b-14b-14b-14b-12-14-14b-12------|
D|---------------------------------------------------------------------------|
A|---------------------------------------------------------------------------|
E|---------------------------------------------------------------------------|

e|-{12-10-12-10-12-10-12-10-12-10-12-10-12-10-12-10-12}----|
B|---------------------------------------------------------|
G|---------------------------------------------------------|
D|---------------------------------------------------------|
A|---------------------------------------------------------|
E|---------------------------------------------------------|

e|-12-10-12h-12-10-12h-12-10b-12h-12b--|
B|-------------------------------------|
G|-------------------------------------|
D|-------------------------------------|
A|-------------------------------------|
E|-------------------------------------|

Post Chorus
e|----------------------------------------------------------|
B|----------------------------------------------------------|
G|-9-9-9-9-9---5-5-5-5-5-10-9-9-9-9-9---5-5-5-5-5-10--9-----|
D|-9-9-9-9-9-7-5-5-5-5-5-10-9-9-9-9-9-7-5-5-5-5-5-10--9-----|
A|-7-7-7-7-7-7-3-3-3-3-3--8-7-7-7-7-7-7-3-3-3-3-3--8--7-----|
E|-----------5------------------------5---------------------|

Interlude
Rhythem
e|---------|
B|---------|
G|-9--7--5-|
D|-9--7--5-|
A|-7--5--3-|
E|---------|

Interlude
Lead
e|--------------------------------------------------------------------------|
B|-14b-12b-11b-9b-7b-6b-4b--------------------------------------------------|
G|--------------------------------------------------------------------------|
D|--------------------------------------------------------------------------|
A|--------------------------------------------------------------------------|
E|--------------------------------------------------------------------------|

| { }  trill
| /  slide up
| \  slide down
| h  hammer-on
| p  pull-off
| ~  vibrato
| +  harmonic
| x  Mute note
| b  bend
===============================================================================
Comments