Turbonegro - Get It On Chords & Tabs

 

Get It On Chords & Tabs

Turbonegro Chords & Tabs

Version: 2 Type: Tab 0 ratings
1 star 2 stars 3 stars 4 stars 5 stars
comments

Get It On Tab

   
#----------------------------------PLEASE NOTE---------------------------------#
#This file is the author's own work and represents their interpretation of the #
#song. You may only use this file for private study, scholarship, or research. #
#------------------------------------------------------------------------------#

Song: Get It On
Artist: Turbonegro
Album: Apocalypse Dudes
Year: 1998
Transcribed by: MOFO

This is only the second guitar. I don't know
everything Euroboy plays, so I cant Tab it.
Maybe I'll put it in an own tab when I learn it... :) 

Gtr II (E A D G B E) - 'Rune Rebellion'


  Gtr I
   W..                +W..                +W..
|-------------------|-------------------|---------||
|-------------------|-------------------|---------||
|-------------------|-------------------|---------||
|-------------------|-------------------|---------||
|-/9----------------|-(9)---------------|-(9)-----||
|-------------------|-------------------|---------||


    Gtr II
    E E E E Q  Q     E  E  E  E  Q   Q    E E E E Q  Q     E  E  E  E  Q   Q
||----------------|---------------------|---------------|--------------------|
||o---------------|---------------------|---------------|--------------------|
||----------------|---------------------|---------------|--------------------|
||--9-9-9-9-9-----|-----------------10--|-9-9-9-9-9-----|-----------------10-|
||o-7-7-7-7-7--7--|-10-10-10-10-10---8--|-7-7-7-7-7--7--|-10-10-10-10-10---8-|
||-------------5--|--8--8--8--8--8------|------------5--|--8--8--8--8--8-----|


  Gtr II
  E E E E Q  Q     E  E  E  E  Q   Q    W           H     H     3x
|---------------|---------------------|----------|--------------||
|---------------|---------------------|----------|-------------o||
|---------------|---------------------|----------|--------------||
|-9-9-9-9-9-----|-----------------10--|-9--------|-12----14-----||
|-7-7-7-7-7--7--|-10-10-10-10-10---8--|-7--------|-10----12----o||
|------------5--|--8--8--8--8--8------|----------|--------------||


  Gtr II
  E E E E Q  Q     E  E  E  E  Q   Q    E E E E Q  Q     E  E  E  E  Q   Q
|---------------|---------------------|---------------|---------------------|
|---------------|---------------------|---------------|---------------------|
|---------------|---------------------|---------------|---------------------|
|-9-9-9-9-9-----|-----------------10--|-9-9-9-9-9-----|-----------------10--|
|-7-7-7-7-7--7--|-10-10-10-10-10---8--|-7-7-7-7-7--7--|-10-10-10-10-10---8--|
|------------5--|--8--8--8--8--8------|------------5--|--8--8--8--8--8------|


  Gtr II
  E E E E Q  Q     E  E  E  E  Q   Q
|---------------|---------------------|
|---------------|---------------------|
|---------------|---------------------|
|-9-9-9-9-9-----|-----------------10--|
|-7-7-7-7-7--7--|-10-10-10-10-10---8--|
|------------5--|--8--8--8--8--8------|


  W..              +Q      W         W
|-----------------------|-----------------||
|-----------------------|-----------------||
|-----------------------|-----------------||
|-9----------------(9)--|-12--------14----||
|-7----------------(7)--|-10--------12----||
|-----------------------|-----------------||


    Gtr II
    E E E E E E E E   E E E E E E E E   E E E E E E E E   E E E E E E E E 3x
||------------------|-----------------|-----------------|-----------------||
||o-----------------|-----------------|-----------------|----------------o||
||------------------|-----------------|-----------------|-----------------||
||--5-5-5-5-5-5-5-5-|-7-7-7-7-7-7-7-7-|-9-9-9-9-9-9-9-9-|-9-9-9-9-9-9-9-9-||
||o-3-3-3-3-3-3-3-3-|-5-5-5-5-5-5-5-5-|-7-7-7-7-7-7-7-7-|-7-7-7-7-7-7-7-7o||
||------------------|-----------------|-----------------|-----------------||


  Gtr II
  E E E E E E E E   E E E E E E E E     E E E E Q  Q     E  E  E  E  Q   Q
|-----------------|-----------------||----------------|---------------------|
|-----------------|-----------------||o---------------|---------------------|
|-----------------|-----------------||----------------|---------------------|
|-5-5-5-5-5-5-5-5-|-7-7-7-7-7-7-7-7-||--9-9-9-9-9-----|-----------------10--|
|-3-3-3-3-3-3-3-3-|-5-5-5-5-5-5-5-5-||o-7-7-7-7-7--7--|-10-10-10-10-10---8--|
|-----------------|-----------------||-------------5--|--8--8--8--8--8------|


  Gtr II
  E E E E Q  Q     E  E  E  E  Q   Q    E E E E Q  Q     E  E  E  E  Q   Q
|---------------|---------------------|---------------|---------------------|
|---------------|---------------------|---------------|---------------------|
|---------------|---------------------|---------------|---------------------|
|-9-9-9-9-9-----|-----------------10--|-9-9-9-9-9-----|-----------------10--|
|-7-7-7-7-7--7--|-10-10-10-10-10---8--|-7-7-7-7-7--7--|-10-10-10-10-10---8--|
|------------5--|--8--8--8--8--8------|------------5--|--8--8--8--8--8------|


  Gtr II
  W           H     H
|----------|--------------||
|----------|-------------o||
|----------|--------------||
|-9--------|-12----14-----||
|-7--------|-10----12----o||
|----------|--------------||


  Gtr II
  E E E E Q  Q     E  E  E  E  Q   Q    E E E E Q  Q     E  E  E  E  Q   Q
|---------------|---------------------|---------------|---------------------|
|---------------|---------------------|---------------|---------------------|
|---------------|---------------------|---------------|---------------------|
|-9-9-9-9-9-----|-----------------10--|-9-9-9-9-9-----|-----------------10--|
|-7-7-7-7-7--7--|-10-10-10-10-10---8--|-7-7-7-7-7--7--|-10-10-10-10-10---8--|
|------------5--|--8--8--8--8--8------|------------5--|--8--8--8--8--8------|


  Gtr II
  W..                +Q    W           W
|------------------|----------------|-------||
|------------------|----------------|-------||
|------------------|----------------|-------||
|-9----------------|-(9)--12--------|-14----||
|-7----------------|-(7)--10--------|-12----||
|------------------|----------------|-------||

[ Tab from: http://www.guitartabs.cc/tabs/t/turbonegro/get_it_on_tab_ver_2.html ]
    Gtr II
    E E E E E E E E   E E E E E E E E   E E E E E E E E   E E E E E E E E 3x
||------------------|-----------------|-----------------|-----------------||
||o-----------------|-----------------|-----------------|----------------o||
||------------------|-----------------|-----------------|-----------------||
||--5-5-5-5-5-5-5-5-|-7-7-7-7-7-7-7-7-|-9-9-9-9-9-9-9-9-|-9-9-9-9-9-9-9-9-||
||o-3-3-3-3-3-3-3-3-|-5-5-5-5-5-5-5-5-|-7-7-7-7-7-7-7-7-|-7-7-7-7-7-7-7-7o||
||------------------|-----------------|-----------------|-----------------||


  Gtr II
  E E E E E E E E   E E E E E E E E    E E E E Q  Q     E  E  E  E  Q   Q
|-----------------|-----------------||---------------|---------------------|
|-----------------|-----------------||---------------|---------------------|
|-----------------|-----------------||---------------|---------------------|
|-5-5-5-5-5-5-5-5-|-7-7-7-7-7-7-7-7-||-9-9-9-9-9-----|-----------------10--|
|-3-3-3-3-3-3-3-3-|-5-5-5-5-5-5-5-5-||-7-7-7-7-7--7--|-10-10-10-10-10---8--|
|-----------------|-----------------||------------5--|--8--8--8--8--8------|


  Gtr II
  E E E E Q  Q     E  E  E  E  Q   Q    E E E E Q  Q     E  E  E  E  Q   Q
|---------------|---------------------|---------------|---------------------||
|---------------|---------------------|---------------|---------------------||
|---------------|---------------------|---------------|---------------------||
|-9-9-9-9-9-----|-----------------10--|-9-9-9-9-9-----|-----------------10--||
|-7-7-7-7-7--7--|-10-10-10-10-10---8--|-7-7-7-7-7--7--|-10-10-10-10-10---8--||
|------------5--|--8--8--8--8--8------|------------5--|--8--8--8--8--8------||


    Gtr II
    W..                +Q    W           W     4x
||-------------------|----------------|--------||
||o------------------|----------------|-------o||
||-------------------|----------------|--------||
||--9----------------|-(9)--12--------|-14-----||
||o-7----------------|-(7)--10--------|-12----o||
||-------------------|----------------|--------||


  Gtr II
  E E E E E E E E   E E E E E E E E
|-----------------|-----------------||
|-----------------|-----------------||
|-----------------|-----------------||
|-9-9-9-9-9-9-9-9-|-9-9-9-9-9-9-9-9-||
|-7-7-7-7-7-7-7-7-|-7-7-7-7-7-7-7-7-||
|-----------------|-----------------||


    Gtr II
    E E E E E E E E   E E E E E E E E   E E E E E E E E   E E E E E E E E 3x
||------------------|-----------------|-----------------|-----------------||
||o-----------------|-----------------|-----------------|----------------o||
||------------------|-----------------|-----------------|-----------------||
||--5-5-5-5-5-5-5-5-|-7-7-7-7-7-7-7-7-|-9-9-9-9-9-9-9-9-|-9-9-9-9-9-9-9-9-||
||o-3-3-3-3-3-3-3-3-|-5-5-5-5-5-5-5-5-|-7-7-7-7-7-7-7-7-|-7-7-7-7-7-7-7-7o||
||------------------|-----------------|-----------------|-----------------||


  Gtr II
  E E E E E E E E   E E E E E E E E    E E E E Q  Q     E  E  E  E  Q   Q
|-----------------|-----------------||---------------|---------------------|
|-----------------|-----------------||---------------|---------------------|
|-----------------|-----------------||---------------|---------------------|
|-5-5-5-5-5-5-5-5-|-7-7-7-7-7-7-7-7-||-9-9-9-9-9-----|-----------------10--|
|-3-3-3-3-3-3-3-3-|-5-5-5-5-5-5-5-5-||-7-7-7-7-7--7--|-10-10-10-10-10---8--|
|-----------------|-----------------||------------5--|--8--8--8--8--8------|


  Gtr II
  E E E E Q  Q     E  E  E  E  Q   Q    E E E E Q  Q     E  E  E  E  Q   Q
|---------------|---------------------|---------------|---------------------|
|---------------|---------------------|---------------|---------------------|
|---------------|---------------------|---------------|---------------------|
|-9-9-9-9-9-----|-----------------10--|-9-9-9-9-9-----|-----------------10--|
|-7-7-7-7-7--7--|-10-10-10-10-10---8--|-7-7-7-7-7--7--|-10-10-10-10-10---8--|
|------------5--|--8--8--8--8--8------|------------5--|--8--8--8--8--8------|


  Gtr II
  E E E E Q  Q     E  E  E  E  Q   Q    E E E E Q
|---------------|---------------------|-------------*|
|---------------|---------------------|-------------*|
|---------------|---------------------|-------------*|
|-9-9-9-9-9-----|-----------------10--|-9-9-9-9-9\--*|
|-7-7-7-7-7--7--|-10-10-10-10-10---8--|-7-7-7-7-7\--*|
|------------5--|--8--8--8--8--8------|-------------*|




--------------------------------------------------------------------------------


Duration Legend
---------------
W - whole; H - half; Q - quarter; E - 8th; S - 16th; T - 32nd; X - 64th; a - acciaccatura
+ - note tied to previous; . - note dotted; .. - note double dotted
Uncapitalized letters represent notes that are staccato (1/2 duration)
Irregular groupings are notated above the duration line
Duration letters will always appear directly above the note/fret number it represents the
duration for.  Duration letters with no fret number below them represent rests.  Multi-
bar rests are notated in the form Wxn, where n is the number of bars to rest for.  Low
melody durations appear below the staff

Tablature Legend
----------------
 h   - hammer-on
 p   - pull-off
 b   - bend
 pb  - pre-bend
 r   - bend release (if no number after the r, then release immediately)
 /\  - slide into or out of (from/to "nowhere")
 s   - legato slide
 S   - shift slide
 - natural harmonic
[n]  - artificial harmonic
n(n) - tapped harmonic
 ~   - vibrato
 tr  - trill
 T   - tap
 TP  - trem. picking
 PM  - palm muting
\n/  - tremolo bar dip; n = amount to dip
 \n  - tremolo bar down
 n/  - tremolo bar up
/n\  - tremolo bar inverted dip
 =   - hold bend; also acts as connecting device for hammers/pulls
 <> - volume swell (louder/softer)
 x   - on rhythm slash represents muted slash
 o   - on rhythm slash represents single note slash

Misc Legend
-----------
 |  - bar
||  - double bar
||o - repeat start
o|| - repeat end
*|  - double bar (ending)
 :  - bar (freetime)
 $  - Segno
 &  - Coda
Tempo markers -  = BPM(8/16=s8/s16), where s8 = swing 8ths, s16 = swing 16ths
Comments