Turbonegro - Fuck The World Chords & Tabs

 

Fuck The World Chords & Tabs

Turbonegro Chords & Tabs

Version: 2 Type: Tab 0 ratings
1 star 2 stars 3 stars 4 stars 5 stars
comments

Fuck The World Tab

E|--------------------------------------------------0------|
B|------------------------0--------010--0---------0---1-0--|
G|-------------------0------2-0-----------2-0---0----------|
D|----2---0-2--2-0-4---4--------2-------------2------------|
A|------2--------------------------------------------------|
E|-0-------------------------------------------------------|


E|---------------------------------|
B|------------------------0--------|
G|-------------------0------2-0----|
D|----2--4-0-2-2-0-4---4--------2--|
A|---------------------------------|
E|-0-------------------------------|
[ Tab from: http://www.guitartabs.cc/tabs/t/turbonegro/fuck_the_world_tab_ver_2.html ]
Comments