Turbonegro - Fuck The World Chords & Tabs

 

Fuck The World Chords & Tabs

Turbonegro Chords & Tabs

Version: 1 Type: Tab 0 ratings
1 star 2 stars 3 stars 4 stars 5 stars
comments

Fuck The World Tab

   
|-----------------------------------------------------|
|----------------------------0------------------------|
|-------------------------------2--0------------------|
|----2----0--2-----4-5-4------------------------------|
|------2-------2/5-------3----------------------------|
|-0---------------------------------------------------|

|-----------------------------------------------------|
|----------0h1p0-------------------0------------------|
|-------------------------------------2--0------------|
|----2-----------------4-5-4--------------------------|
|------2----------2/5---------3-----------------------|
|-0---------------------------------------------------|
[ Tab from: http://www.guitartabs.cc/tabs/t/turbonegro/fuck_the_world_tab.html ]
|         |        |       |
|         |        |       |
|   Em    |   D    |   C   |
|         |        |       |
|         |        |       |
|         |        |       |

|-----------------------|----------------------------------|
|-----------------------|----------------------------------|
|-5-5555--7--9-9999-7---|-5-5555--7--9-9999--7--5-5555-4---|
|-5-5555--7--9-9999-7---|-5-5555--7--9-9999--7--5-5555-4---|
|-3-3333--5--7-7777-5---|-3-3333--5--7-7777--5--3-3333-2---|
|-----------------------|----------------------------------|

|         |        |       |
|         |        |       |
|   Em    |   D    |   C   |
|         |        |       |
|         |        |       |
|         |        |       |
Comments