Turbonegro - City Of Satan Chords & Tabs

 

City Of Satan Chords & Tabs

Turbonegro Chords & Tabs

Version: 1 Type: Tab 0 ratings
1 star 2 stars 3 stars 4 stars 5 stars
comments

City Of Satan Tab

   
e-----3-----|
h-----3-----|
g-0---0-0---|
d-0-0-0-0-0-|
a-0-0-2-0-0-|
e---1-3---1-|

I donīt know the "solo part" in the beginning.

chorus.
[ Tab from: http://www.guitartabs.cc/tabs/t/turbonegro/city_of_satan_tab.html ]
-----------------------------------|
-----------------------------------|
--------------------55555555-77777-|
-----11111111111111-55555555-77777-|
-7/2-00000000000000-33333333-55555-|
-----------------------------------|


and then you play the verse riff but itīs a little different. you play the E longer and 
heavy. if you have the song you can hear it. itīs the same tunes.
UP THE IRONS!
Comments