Turbonegro - Are You Ready For Some Darkness Chords & Tabs

 

Are You Ready For Some Darkness Chords & Tabs

Turbonegro Chords & Tabs

Version: 1 Type: Tab 0 ratings
1 star 2 stars 3 stars 4 stars 5 stars
comments

Are You Ready For Some Darkness Tab

   
#----------------------------------PLEASE NOTE---------------------------------#
#This file is the author's own work and represents their interpretation of the #
#song. You may only use this file for private study, scholarship, or research. #
#------------------------------------------------------------------------------#

--------------------------
Song: Are You Ready (For Some Darkness)
Artist: Turbonegro
Album: Apocalypse Dudes
Year: 1997
Transcribed by: EuroJugend
--------------------------


This is my "Are You Ready" tab, and it's at least 
almost right (It's the way my band plays it). 
The tab is for the first and second guitar.


 4/4
  Gtrs I, II
  Q  Q  E E Q    W
|--------------|------||
|--------------|------||
|--------------|------||
|-5--5---------|------||
|-3--3--5---5--|-7----||
|-------3-0-3--|-5----||


 4/4
  Gtr I
   PM------------------------------------
   E  E  E  E E E E E   E E E E E E E E
|---------------------|-----------------|
|---------------------|-----------------|
|---------------------|-----------------|
|/10-10-10-10-7-7-7-7-|-9-9-9-9-9-9-9-9-|
|/-8--8--8--8-5-5-5-5-|-7-7-7-7-7-7-7-7-|
|/-8--8--8--8-5-5-5-5-|-7-7-7-7-7-7-7-7-|


 -------------------------------------|
   E  E  E  E E E E E   E E E E E E E E
|---------------------|------------------|
|---------------------|------------------|
|---------------------|------------------|
|-10-10-10-10-7-7-7-7-|-9-9-9-9-9-9-9-9--|
|--8--8--8--8-5-5-5-5-|-7-7-7-7-7-7-7-7--|
|--8--8--8--8-5-5-5-5-|-7-7-7-7-7-7-7-7--|


 4/4
  Gtr I
    PM----------------------------------------
    E  E  E  E E E E E    E  E  E  E E E E E
|----------------------|---------------------|
|----------------------|---------------------|
|----------------------|---------------------|
|--10-10-10-10-7-7-7-7-|-10-10-10-10-7-7-7-7-|
|---8--8--8--8-5-5-5-5-|--8--8--8--8-5-5-5-5-|
|---8--8--8--8-5-5-5-5-|--8--8--8--8-5-5-5-5-|


 ---------------------------------------|
   E  E  E  E E E  E  E   E E E E E E E E
|-----------------------|------------------|
|-----------------------|------------------|
|-----------------------|------------------|
|-10-10-10-10-7-7-10-10-|-9-9-9-9-9-9-9-9--|
|--8--8--8--8-5-5--8--8-|-7-7-7-7-7-7-7-7--|
|--8--8--8--8-5-5--8--8-|-7-7-7-7-7-7-7-7--|


 4/4
  Gtr I
   PM------------------------------------
   E  E  E  E E E E E   E E E E E E E E
|---------------------|-----------------|
|---------------------|-----------------|
|---------------------|-----------------|
|-10-10-10-10-7-7-7-7-|-9-9-9-9-9-9-9-9-|
|--8--8--8--8-5-5-5-5-|-7-7-7-7-7-7-7-7-|
|--8--8--8--8-5-5-5-5-|-7-7-7-7-7-7-7-7-|
|
| Gtr II
|  E  E  E  E E E E E   E E E E E E E E
|---------------------|-----------------|
|---------------------|-----------------|
|---------------------|-----------------|
|-10----10----7---7---|-9---9---9---9---|
|--8-----8----5---5---|-7---7---7---7---|
|--8-----8----5---5---|-7---7---7---7---|


 -------------------------------------|
   E  E  E  E E E E E   E E E E E E E E
|---------------------|------------------|
|---------------------|------------------|
|---------------------|------------------|
|-10-10-10-10-7-7-7-7-|-9-9-9-9-9-9-9-9--|
|--8--8--8--8-5-5-5-5-|-7-7-7-7-7-7-7-7--|
|--8--8--8--8-5-5-5-5-|-7-7-7-7-7-7-7-7--|
|
|  E  E  E  E E E E E   E E E E E E E E
|---------------------|------------------|
|---------------------|------------------|
|---------------------|------------------|
|-10----10----7---7---|-9---9---9---9----|
|--8-----8----5---5---|-7---7---7---7----|
|--8-----8----5---5---|-7---7---7---7----|


 4/4
  Gtr I
   PM----------------------------------------
   E  E  E  E E E E E    E  E  E  E E E E E
|---------------------|---------------------|
|---------------------|---------------------|
|---------------------|---------------------|
|-10-10-10-10-7-7-7-7-|-10-10-10-10-7-7-7-7-|
|--8--8--8--8-5-5-5-5-|--8--8--8--8-5-5-5-5-|
|--8--8--8--8-5-5-5-5-|--8--8--8--8-5-5-5-5-|
|
| Gtr II
|  E  E  E  E E E E E    E  E  E  E E E E E
|---------------------|---------------------|
|---------------------|---------------------|
|---------------------|---------------------|
|-10----10----7---7---|-10----10----7---7---|
|--8-----8----5---5---|--8-----8----5---5---|
|--8-----8----5---5---|--8-----8----5---5---|


 ---------------------------------|
   E  E  E  E E E  E  E   E E E E E E E E
|-----------------------|------------------||
|-----------------------|------------------||
|-----------------------|------------------||
|-10-10-10-10-7-7-10-10-|-9-9-9-9-9--------||
|--8--8--8--8-5-5--8--8-|-7-7-7-7-7--------||
|--8--8--8--8-5-5--8--8-|-7-7-7-7-7--------||
|
|  E  E  E  E E E  E  E   E E E E E E E E
|-----------------------|------------------||
|-----------------------|------------------||
|-----------------------|------------------||
|-10----10----7---10----|-9---9---9--------||
|--8-----8----5----8----|-7---7---7--------||
|--8-----8----5----8----|-7---7---7--------||


   4/4
    Gtrs I, II
     E  E  E  E E E E E   E E E E E E E E
||----------------------|-----------------|
||o---------------------|-----------------|
||----------------------|-----------------|
||--10-10-10-10-7-7-7-7-|-9-9-9-9-9-9-9-9-|
||o--8--8--8--8-5-5-5-5-|-7-7-7-7-7-7-7-7-|
||---8--8--8--8-5-5-5-5-|-7-7-7-7-7-7-7-7-|


   E  E  E  E E E E E   E E E E E E E E
|---------------------|-----------------|
|---------------------|-----------------|
|---------------------|-----------------|
|-10-10-10-10-7-7-7-7-|-9-9-9-9-9-9-9-9-|
|--8--8--8--8-5-5-5-5-|-7-7-7-7-7-7-7-7-|
|--8--8--8--8-5-5-5-5-|-7-7-7-7-7-7-7-7-|


 4/4
  Gtrs I, II
   E  E  E  E E E E E    E  E  E  E E E E E
|---------------------|---------------------|
|---------------------|---------------------|
|---------------------|---------------------|
|-10-10-10-10-7-7-7-7-|-10-10-10-10-7-7-7-7-|
|--8--8--8--8-5-5-5-5-|--8--8--8--8-5-5-5-5-|
|--8--8--8--8-5-5-5-5-|--8--8--8--8-5-5-5-5-|


   E  E  E  E E E  E  E   E E E E E E E E
|-----------------------|-------------------||
|-----------------------|------------------o||
|-----------------------|-------------------||
|-10-10-10-10-7-7-10-10-|-9-9-9-9-9-9-9-9---||
|--8--8--8--8-5-5--8--8-|-7-7-7-7-7-7-7-7--o||
|--8--8--8--8-5-5--8--8-|-7-7-7-7-7-7-7-7---||


 4/4
  Gtrs I, II
  E E E E E E E E    E  E  E  E  E  E  E  E
|-----------------|-------------------------|
|-----------------|-------------------------|
|-----------------|-------------------------|
|-2-2-4-2-2-2-4-2-|-10-10-12-10-10-10-12-10-|
|-0-0-0-0-0-0-0-0-|--8--8--8--8--8--8--8--8-|
|-----------------|-------------------------|


  E E E E E E E E    E  E  E  E  E  E  E  E
|-----------------|--------------------------|
|-----------------|--------------------------|
|-----------------|--------------------------|
|-2-2-4-2-2-2-4-2-|-10-10-12-10-10-10-12-10--|
|-0-0-0-0-0-0-0-0-|--8--8--8--8--8--8--8--8--|
|-----------------|--------------------------|


 4/4
  Gtrs I, II
  E E E E E E E E    E  E  E  E  E  E  E  E
|-----------------|-------------------------|
|-----------------|-------------------------|
|-----------------|-------------------------|
|-7-7-7-7-7-7-7-7-|-10-10-10-10-10-10-10-10-|
|-5-5-5-5-5-5-5-5-|--8--8--8--8--8--8--8--8-|
|-----------------|-------------------------|


  E E E E E E E E    E  E  E  E  E  E  E  E
|-----------------|--------------------------|
|-----------------|--------------------------|
|-----------------|--------------------------|
|-5-5-5-5-5-5-5-5-|-12-12-12-12-12-12-12-12--|
|-3-3-3-3-3-3-3-3-|-10-10-10-10-10-10-10-10--|
|-----------------|--------------------------|


 4/4
  Gtrs I, II
  E E E E E E E E    E  E  E  E  E  E  E  E
|-----------------|-------------------------|
|-----------------|-------------------------|
|-----------------|-------------------------|
|-2-2-4-2-2-2-4-2-|-10-10-12-10-10-10-12-10-|
|-0-0-0-0-0-0-0-0-|--8--8--8--8--8--8--8--8-|
|-----------------|-------------------------|


  E E E E E E E E    E  E  E  E  E  E  E  E
|-----------------|--------------------------|
|-----------------|--------------------------|
|-----------------|--------------------------|
|-2-2-4-2-2-2-4-2-|-10-10-12-10-10-10-12-10--|
|-0-0-0-0-0-0-0-0-|--8--8--8--8--8--8--8--8--|
|-----------------|--------------------------|


 4/4
  Gtrs I, II
  E E E E E E E E    E  E  E  E  E  E  E  E   Q  Q  E E Q    W
|-----------------|-------------------------|--------------|------||
|-----------------|-------------------------|--------------|------||
|-----------------|-------------------------|--------------|------||
|-7-7-7-7-7-7-7-7-|-10-10-10-10-10-10-10-10-|-5--5---------|------||
|-5-5-5-5-5-5-5-5-|--8--8--8--8--8--8--8--8-|-3--3--5---5--|-7----||
|-----------------|-------------------------|-------3-0-3--|-5----||


 4/4
  Gtrs I, II
   PM------------------------------------
   E  E  E  E E E E E   E E E E E E E E
|---------------------|-----------------|
|---------------------|-----------------|
|---------------------|-----------------|
|-10-10-10-10-7-7-7-7-|-9-9-9-9-9-9-9-9-|
|--8--8--8--8-5-5-5-5-|-7-7-7-7-7-7-7-7-|
|--8--8--8--8-5-5-5-5-|-7-7-7-7-7-7-7-7-|


 -------------------------------------|
   E  E  E  E E E E E   E E E E E E E E
|---------------------|------------------|
|---------------------|------------------|
|---------------------|------------------|
|-10-10-10-10-7-7-7-7-|-9-9-9-9-9-9-9-9--|
|--8--8--8--8-5-5-5-5-|-7-7-7-7-7-7-7-7--|
|--8--8--8--8-5-5-5-5-|-7-7-7-7-7-7-7-7--|


 4/4
  Gtrs I, II
   PM----------------------------------------
   E  E  E  E E E E E    E  E  E  E E E E E
|---------------------|---------------------|
|---------------------|---------------------|
|---------------------|---------------------|
|-10-10-10-10-7-7-7-7-|-10-10-10-10-7-7-7-7-|
|--8--8--8--8-5-5-5-5-|--8--8--8--8-5-5-5-5-|
|--8--8--8--8-5-5-5-5-|--8--8--8--8-5-5-5-5-|


 ---------------------------------------|
   E  E  E  E E E  E  E   E E E E E E E E
|-----------------------|------------------|
|-----------------------|------------------|
|-----------------------|------------------|
|-10-10-10-10-7-7-10-10-|-9-9-9-9-9-9-9-9--|
|--8--8--8--8-5-5--8--8-|-7-7-7-7-7-7-7-7--|
|--8--8--8--8-5-5--8--8-|-7-7-7-7-7-7-7-7--|

[ Tab from: http://www.guitartabs.cc/tabs/t/turbonegro/are_you_ready_for_some_darkness_tab.html ]
 4/4
  Gtrs I, II
   E  E  E  E E E E E   E E E E E E E E
|---------------------|-----------------|
|---------------------|-----------------|
|---------------------|-----------------|
|-10-10-10-10-7-7-7-7-|-9-9-9-9-9-9-9-9-|
|--8--8--8--8-5-5-5-5-|-7-7-7-7-7-7-7-7-|
|--8--8--8--8-5-5-5-5-|-7-7-7-7-7-7-7-7-|


   E  E  E  E E E E E   E E E E E E E E
|---------------------|------------------|
|---------------------|------------------|
|---------------------|------------------|
|-10-10-10-10-7-7-7-7-|-9-9-9-9-9-9-9-9--|
|--8--8--8--8-5-5-5-5-|-7-7-7-7-7-7-7-7--|
|--8--8--8--8-5-5-5-5-|-7-7-7-7-7-7-7-7--|


 4/4
  Gtrs I, II
   E  E  E  E E E E E    E  E  E  E E E E E
|---------------------|---------------------|
|---------------------|---------------------|
|---------------------|---------------------|
|-10-10-10-10-7-7-7-7-|-10-10-10-10-7-7-7-7-|
|--8--8--8--8-5-5-5-5-|--8--8--8--8-5-5-5-5-|
|--8--8--8--8-5-5-5-5-|--8--8--8--8-5-5-5-5-|


   E  E  E  E E E  E  E   E E E E E E E E
|-----------------------|------------------||
|-----------------------|------------------||
|-----------------------|------------------||
|-10-10-10-10-7-7-10-10-|-9-9-9-9-9-9-9-9--||
|--8--8--8--8-5-5--8--8-|-7-7-7-7-7-7-7-7--||
|--8--8--8--8-5-5--8--8-|-7-7-7-7-7-7-7-7--||


 4/4
  Gtrs I, II
  E E E E E E E E    E  E  E  E  E  E  E  E
|-----------------|-------------------------|
|-----------------|-------------------------|
|-----------------|-------------------------|
|-2-2-4-2-2-2-4-2-|-10-10-12-10-10-10-12-10-|
|-0-0-0-0-0-0-0-0-|--8--8--8--8--8--8--8--8-|
|-----------------|-------------------------|


  E E E E E E E E    E  E  E  E  E  E  E  E
|-----------------|--------------------------|
|-----------------|--------------------------|
|-----------------|--------------------------|
|-2-2-4-2-2-2-4-2-|-10-10-12-10-10-10-12-10--|
|-0-0-0-0-0-0-0-0-|--8--8--8--8--8--8--8--8--|
|-----------------|--------------------------|


 4/4
  Gtrs I, II
  E E E E E E E E    E  E  E  E  E  E  E  E
|-----------------|-------------------------|
|-----------------|-------------------------|
|-----------------|-------------------------|
|-7-7-7-7-7-7-7-7-|-10-10-10-10-10-10-10-10-|
|-5-5-5-5-5-5-5-5-|--8--8--8--8--8--8--8--8-|
|-----------------|-------------------------|


  E E E E E E E E    E  E  E  E  E  E  E  E
|-----------------|--------------------------|
|-----------------|--------------------------|
|-----------------|--------------------------|
|-5-5-5-5-5-5-5-5-|-12-12-12-12-12-12-12-12--|
|-3-3-3-3-3-3-3-3-|-10-10-10-10-10-10-10-10--|
|-----------------|--------------------------|


 4/4
  Gtrs I, II
  E E E E E E E E    E  E  E  E  E  E  E  E
|-----------------|-------------------------|
|-----------------|-------------------------|
|-----------------|-------------------------|
|-2-2-4-2-2-2-4-2-|-10-10-12-10-10-10-12-10-|
|-0-0-0-0-0-0-0-0-|--8--8--8--8--8--8--8--8-|
|-----------------|-------------------------|


  E E E E E E E E    E  E  E  E  E  E  E  E
|-----------------|--------------------------|
|-----------------|--------------------------|
|-----------------|--------------------------|
|-2-2-4-2-2-2-4-2-|-10-10-12-10-10-10-12-10--|
|-0-0-0-0-0-0-0-0-|--8--8--8--8--8--8--8--8--|
|-----------------|--------------------------|


 4/4
  Gtrs I, II
  E E E E E E E E    E  E  E  E  E  E  E  E   Q  Q  E E Q    E E E E H
|-----------------|-------------------------|--------------|--------------||
|-----------------|-------------------------|--------------|--------------||
|-----------------|-------------------------|--------------|--------------||
|-7-7-7-7-7-7-7-7-|-10-10-10-10-10-10-10-10-|-5--5---------|--------------||
|-5-5-5-5-5-5-5-5-|--8--8--8--8--8--8--8--8-|-3--3--5---5--|-7-7-7-7-7----||
|-----------------|-------------------------|-------3-0-3--|-5-5-5-5-5----||


   4/4
    Gtr I
     E  E  Q      +E    Q     +E     Q     E  Q     Q    +E
||--------------------------------|--------------------------|
||o-------------------------------|--------------------------|
||---------------------10----(10)-|--9----10--9-----5----(5)-|
||--------<7>----(<7>)------------|--------------------------|
||o-------------------------------|--------------------------|
||--------------------------------|--------------------------|
|
|   Gtr II
|    E  E  E   E   E    E  E   E     E  E  E  E  E  E  E  E
||--------------------------------|--------------------------|
||o-------------------------------|--------------------------|
||--------------------------------|--------------------------|
||--10-10-10--10--10---10-10--10--|-10-10-10-10-10-10-10-10--|
||o--8--8--8---8---8----8--8---8--|--8--8--8--8--8--8--8--8--|
||--------------------------------|--------------------------|


  E E E E E Q   +E        E  E  E  E  E  Q     +E    3x
|-------------------|--------------------------------||
|-------------------|-------------------------------o||
|-----7-7-7-6---(6)-|--7S12-12-14-14-14-12----(12)---||
|-----7-7-7-7---(7)-|--7S12-12-12-12-12-12----(12)---||
|-0-0---------------|-------------------------------o||
|-------------------|--------------------------------||
|
| E E E E E E E  E     E  E  E  E  E  E  E  E        3x
|-------------------|--------------------------------||
|-------------------|-------------------------------o||
|-------------------|--------------------------------||
|-------------------|-12-12-12-12-12-12-12-12--------||
|-7-7-7-7-7-7-7--7--|-10-10-10-10-10-10-10-10-------o||
|-5-5-5-5-5-5-5--5--|--------------------------------||


 4/4
  Gtr I
   E  E  Q      +E    Q     +E
|-------------------------------|
|-------------------------------|
|--------------------10----(10)-|
|-------<7>----(<7>)------------|
|-------------------------------|
|-------------------------------|
|
| Gtr II
|  E  E  E   E   E    E  E   E
|-------------------------------|
|-------------------------------|
|-------------------------------|
|-10-10-10--10--10---10-10--10--|
|--8--8--8---8---8----8--8---8--|
|-------------------------------|


   Q     E  Q     Q    +E    Q     Q  E   E  Q       W
|--------------------------|-----------------------|------||
|--------------------------|-8b10--8---------------|------||
|--9----10--9-----5----(5)-|----------7b9r7--------|------||
|--------------------------|----------------10b12--|-7----||
|--------------------------|-----------------------|------||
|--------------------------|-----------------------|------||
|
|  E  E  E  E  E  E  E  E    Q     Q  E   E  Q       W
|--------------------------|-----------------------|------||
|--------------------------|-----------------------|------||
|--------------------------|-----------------------|------||
|-10-10-10-10-10-10-10-10--|-5-----5---------------|------||
|--8--8--8--8--8--8--8--8--|-3-----3--5------5-----|-7----||
|--------------------------|----------3---0--3-----|-5----||


 4/4
  Gtrs I, II
   PM------------------------------------
   E  E  E  E E E E E   E E E E E E E E
|---------------------|-----------------|
|---------------------|-----------------|
|---------------------|-----------------|
|-10-10-10-10-7-7-7-7-|-9-9-9-9-9-9-9-9-|
|--8--8--8--8-5-5-5-5-|-7-7-7-7-7-7-7-7-|
|--8--8--8--8-5-5-5-5-|-7-7-7-7-7-7-7-7-|


 -------------------------------------|
   E  E  E  E E E E E   E E E E E E E E
|---------------------|------------------|
|---------------------|------------------|
|---------------------|------------------|
|-10-10-10-10-7-7-7-7-|-9-9-9-9-9-9-9-9--|
|--8--8--8--8-5-5-5-5-|-7-7-7-7-7-7-7-7--|
|--8--8--8--8-5-5-5-5-|-7-7-7-7-7-7-7-7--|


 4/4
  Gtrs I, II
   PM----------------------------------------
   E  E  E  E E E E E    E  E  E  E E E E E
|---------------------|---------------------|
|---------------------|---------------------|
|---------------------|---------------------|
|-10-10-10-10-7-7-7-7-|-10-10-10-10-7-7-7-7-|
|--8--8--8--8-5-5-5-5-|--8--8--8--8-5-5-5-5-|
|--8--8--8--8-5-5-5-5-|--8--8--8--8-5-5-5-5-|


 ---------------------------------------|
   E  E  E  E E E  E  E   E E E E E E E E
|-----------------------|------------------||
|-----------------------|------------------||
|-----------------------|------------------||
|-10-10-10-10-7-7-10-10-|-9-9-9-9-9-9-9-9--||
|--8--8--8--8-5-5--8--8-|-7-7-7-7-7-7-7-7--||
|--8--8--8--8-5-5--8--8-|-7-7-7-7-7-7-7-7--||


   4/4
    Gtrs I, II
    E E E E E E E E   E E E E E E E E   E E E E E E E E   E E E E E E E E  3x
||------------------|-----------------|-----------------|------------------||
||o-----------------|-----------------|-----------------|-----------------o||
||------------------|-----------------|-----------------|------------------||
||------------------|-----------------|-----------------|------------------||
||o-3-3-3-3-3-3-3-3-|-5-5-5-5-5-5-5-5-|-7-7-7-7-7-7-7-7-|-5-5-5-5-5-5-5-5-o||
||--1-1-1-1-1-1-1-1-|-3-3-3-3-3-3-3-3-|-5-5-5-5-5-5-5-5-|-3-3-3-3-3-3-3-3--||


 4/4
  Gtrs I, II
  E E E E E E E E   E E E E E E E E   Q  Q  E E Q    E E E E H
|-----------------|-----------------|--------------|---------------*|
|-----------------|-----------------|--------------|---------------*|
|-----------------|-----------------|--------------|---------------*|
|-----------------|-----------------|-5--5---------|---------------*|
|-3-3-3-3-3-3-3-3-|-5-5-5-5-5-5-5-5-|-3--3--5---5--|-7-7-7-7-7\----*|
|-1-1-1-1-1-1-1-1-|-3-3-3-3-3-3-3-3-|-------3-0-3--|-5-5-5-5-5\----*|




--------------------------------------------------------------------------------


Duration Legend
---------------
W - whole; H - half; Q - quarter; E - 8th; S - 16th; T - 32nd; X - 64th; a - acciaccatura
+ - note tied to previous; . - note dotted; .. - note double dotted
Uncapitalized letters represent notes that are staccato (1/2 duration)
Irregular groupings are notated above the duration line
Duration letters will always appear directly above the note/fret number it represents the
duration for.  Duration letters with no fret number below them represent rests.  Multi-
bar rests are notated in the form Wxn, where n is the number of bars to rest for.  Low
melody durations appear below the staff

Tablature Legend
----------------
 h   - hammer-on
 p   - pull-off
 b   - bend
 pb  - pre-bend
 r   - bend release (if no number after the r, then release immediately)
 /\  - slide into or out of (from/to "nowhere")
 s   - legato slide
 S   - shift slide
 - natural harmonic
[n]  - artificial harmonic
n(n) - tapped harmonic
 ~   - vibrato
 tr  - trill
 T   - tap
 TP  - trem. picking
 PM  - palm muting
\n/  - tremolo bar dip; n = amount to dip
 \n  - tremolo bar down
 n/  - tremolo bar up
/n\  - tremolo bar inverted dip
 =   - hold bend; also acts as connecting device for hammers/pulls
 <> - volume swell (louder/softer)
 x   - on rhythm slash represents muted slash
 o   - on rhythm slash represents single note slash

Misc Legend
-----------
 |  - bar
||  - double bar
||o - repeat start
o|| - repeat end
*|  - double bar (ending)
 :  - bar (freetime)
 $  - Segno
 &  - Coda
Tempo markers -  = BPM(8/16=s8/s16), where s8 = swing 8ths, s16 = swing 16ths
Comments