Turbonegro - All My Friends Are Dead Chords & Tabs

 

All My Friends Are Dead Chords & Tabs

Turbonegro Chords & Tabs

Version: 1 Type: Tab 0 ratings
1 star 2 stars 3 stars 4 stars 5 stars
comments

All My Friends Are Dead Tab

-------------------------------------------------------------------------------
			All My Friends Are Dead - Turbonegro
-------------------------------------------------------------------------------
Tabbed by: xstaytruex
Tuning: EADGBe

Okay here it's a more complete version of the tab that have been already post.
Try to figure out the strumming which is pretty easy.

INTRO:

e--------------------|
B--------------------|
G--9-9-10----7-10-9--|
D--9-9-10----7-10-9--| x4 (on the 3rd and 4th time let it ring)
A--7-7-8-----5-8--7--|
E--7-7-8-----5-8--7--|
"Where're your friends?"

e------------------|-----------------------------------------------------|
B------------------|-----------------------------------------------------|
G--7-7-9----7-7-9--|-7-7-5-5-5-5---------7-7-7-7-9-9-9-9-9-9-9-9-9-9-9-9-|
D--7-7-9----7-7-7--|-7-7-5-5-5-5-7-7-7-7-7-7-7-7-7-7-7-7-7-7-7-7-7-7-7-7-|
A--5-5-7----5-5-7--|-5-5-3-3-3-3-7-7-7-7-5-5-5-5-7-7-7-7-7-7-7-7-7-7-7-7-|
E--5-5-7----5-5-7--|-5-5-3-3-3-3-5-5-5-5-5-5-5-5-7-7-7-7-7-7-7-7-7-7-7-7-|
"All my friends are dead" "You got kicked in the head. All my friends are dead"


VERSE:

e-----------------------------|
B-----------------------------|
G--7-7-9-9-9-9-9-9-9-9-9-9-9--|
D--7-7-9-9-9-9-9-9-9-9-9-9-9--| x2
A--5-5-7-7-7-7-7-7-7-7-7-7-7--|
E--5-5-7-7-7-7-7-7-7-7-7-7-7--|
"All my friends are dead"

e------------------------------------------------------|
B------------------------------------------------------|
G--7-7-5-5-5-5---------7-7-7-7-9-9-9-9-9-9-9-9-9-9-9-9-|
D--7-7-5-5-5-5-7-7-7-7-7-7-7-7-7-7-7-7-7-7-7-7-7-7-7-7-|
A--5-5-3-3-3-3-7-7-7-7-5-5-5-5-7-7-7-7-7-7-7-7-7-7-7-7-|
E--5-5-3-3-3-3-5-5-5-5-5-5-5-5-7-7-7-7-7-7-7-7-7-7-7-7-| 
"You got smacked in the head..."


CHORUS:

e------------------------------------------------------|
B------------------------------------------------------|
G--5-5-----7-7-----9-9-9-9-9-9-9-9-9-9-9-9-------------|
D--5-5-7-7-7-7-7-7-9-9-9-9-9-9-9-9-9-9-9-9-------------|
A--3-3-7-7-5-5-7-7-7-7-7-7-7-7-7-7-7-7-7-7-------------|
E--3-3-5-5-5-5-5-5-7-7-7-7-7-7-7-7-7-7-7-7-------------|
"I always knew that they would end up like today"

e----------------------------------|----------[x3]---------|
B----------------------------------|-----------------------|
G--5-5-----7-7-----6---------------|--7-7-6----------------|
D--5-5-7-7-7-7-7-7-6-(let it ring)-|--7-7-6-(let it ring)--|
A--3-3-7-7-5-5-7-7-4---------------|--5-5-4----------------|
E--3-3-5-5-5-5-5-5-4---------------|--5-5-4----------------|
"They bought the bullet and they..."   "Hey! (x3)"


VERSE:

e-----------------------------|
B-----------------------------|
G--7-7-9-9-9-9-9-9-9-9-9-9-9--|
D--7-7-9-9-9-9-9-9-9-9-9-9-9--| x2
A--5-5-7-7-7-7-7-7-7-7-7-7-7--|
E--5-5-7-7-7-7-7-7-7-7-7-7-7--|
"All my dreams were lies"

e------------------------------------------------------|
B------------------------------------------------------|
G--7-7-5-5-5-5---------7-7-7-7-9-9-9-9-9-9-9-9-9-9-9-9-|
D--7-7-5-5-5-5-7-7-7-7-7-7-7-7-7-7-7-7-7-7-7-7-7-7-7-7-|
A--5-5-3-3-3-3-7-7-7-7-5-5-5-5-7-7-7-7-7-7-7-7-7-7-7-7-|
E--5-5-3-3-3-3-5-5-5-5-5-5-5-5-7-7-7-7-7-7-7-7-7-7-7-7-|
"Nightmares in disguise. All my dreams were lies"
[ Tab from: http://www.guitartabs.cc/tabs/t/turbonegro/all_my_friends_are_dead_tab.html ]
e-----------------------------|
B-----------------------------|
G--7-7-9-9-9-9-9-9-9-9-9-9-9--|
D--7-7-9-9-9-9-9-9-9-9-9-9-9--| x2
A--5-5-7-7-7-7-7-7-7-7-7-7-7--|
E-----------------------------|
       [------ P.M. -------]
"All my friends are dead"

e------------------------------------------------------|
B------------------------------------------------------|
G--7-7-5-5-5-5---------7-7-7-7-9-9-9-9-9-9-9-9-9-9-9-9-|
D--7-7-5-5-5-5-7-7-7-7-7-7-7-7-7-7-7-7-7-7-7-7-7-7-7-7-|
A--5-5-3-3-3-3-7-7-7-7-5-5-5-5-7-7-7-7-7-7-7-7-7-7-7-7-|
E--5-5-3-3-3-3-5-5-5-5-5-5-5-5-7-7-7-7-7-7-7-7-7-7-7-7-|
"You got dragged outta bed. Now they're buried and they're dead"


CHORUS: 

e------------------------------------------------------|
B------------------------------------------------------|
G--5-5-----7-7-----9-9-9-9-9-9-9-9-9-9-9-9-------------|
D--5-5-7-7-7-7-7-7-9-9-9-9-9-9-9-9-9-9-9-9-------------|
A--3-3-7-7-5-5-7-7-7-7-7-7-7-7-7-7-7-7-7-7-------------|
E--3-3-5-5-5-5-5-5-7-7-7-7-7-7-7-7-7-7-7-7-------------|
"I always knew that they would end up like today"

e----------------------------------|----------[x3]---------|
B----------------------------------|-----------------------|
G--5-5-----7-7-----6---------------|--7-7-6----------------|
D--5-5-7-7-7-7-7-7-6-(let it ring)-|--7-7-6-(let it ring)--|
A--3-3-7-7-5-5-7-7-4---------------|--5-5-4----------------|
E--3-3-5-5-5-5-5-5-4---------------|--5-5-4----------------|
"They bought the bullet and they..."   "Hey! Fuckin' Eh!"


SOLO:
While Euroboy plays the solo 
you should continue playing VERSE:

e-----------------------------|
B-----------------------------|
G--7-7-9-9-9-9-9-9-9-9-9-9-9--|
D--7-7-9-9-9-9-9-9-9-9-9-9-9--| x2
A--5-5-7-7-7-7-7-7-7-7-7-7-7--|
E--5-5-7-7-7-7-7-7-7-7-7-7-7--|

e------------------------------------------------------|
B------------------------------------------------------|
G--7-7-5-5-5-5---------7-7-7-7-9-9-9-9-9-9-9-9-9-9-9-9-|
D--7-7-5-5-5-5-7-7-7-7-7-7-7-7-7-7-7-7-7-7-7-7-7-7-7-7-|
A--5-5-3-3-3-3-7-7-7-7-5-5-5-5-7-7-7-7-7-7-7-7-7-7-7-7-|
E--5-5-3-3-3-3-5-5-5-5-5-5-5-5-7-7-7-7-7-7-7-7-7-7-7-7-|


CHORUS:

e------------------------------------------------------|
B------------------------------------------------------|
G--5-5-----7-7-----9-9-9-9-9-9-9-9-9-9-9-9-------------|
D--5-5-7-7-7-7-7-7-9-9-9-9-9-9-9-9-9-9-9-9-------------|
A--3-3-7-7-5-5-7-7-7-7-7-7-7-7-7-7-7-7-7-7-------------|
E--3-3-5-5-5-5-5-5-7-7-7-7-7-7-7-7-7-7-7-7-------------|
"I always knew that they would end up like today"

e----------------------------------|----------[x3]---------|
B----------------------------------|-----------------------|
G--5-5-----7-7-----6---------------|--7-7-6----------------|
D--5-5-7-7-7-7-7-7-6-(let it ring)-|--7-7-6-(let it ring)--|
A--3-3-7-7-5-5-7-7-4---------------|--5-5-4----------------|
E--3-3-5-5-5-5-5-5-4---------------|--5-5-4----------------|
"They bought the bullet and they..."   "Now they're buried and they're dead"


OUTRO:

e-----|--------[x3]--------|
B-----|--------------------|
G-7-7-|--9-9-10----7-10-9--|
D-7-7-|--9-9-10----7-10-9--| 
A-5-5-|--7-7-8-----5-8--7--|
E-----|--------------------|
         "Dead!"


Well that's about it!
DEATHPUNK FOREVER! 
Comments