Turbonegro - Age Of Pomparius Chords & Tabs

 

Age Of Pomparius Chords & Tabs

Turbonegro Chords & Tabs

Version: 1 Type: Tab 0 ratings
1 star 2 stars 3 stars 4 stars 5 stars
comments

Age Of Pomparius Tab

Intro 1
|-----------------------------------------------------------------------|
|-----------------------------------------------------------------------|
|-----------------------------------------------------------------------|
|-----------------------------7-(9)-7-----------------------------------|
|-7-------5-7-----------5-7-----------5-----------5-7-----------5-9-7---|
|-----5-7-------7-7-5-7-------------------7-7-5-7-------7-7-5-7---------|

|-----------------------------10-7-10-7-10-(12)---10-7-10-7-10-(12)-|
|-----------------------------10-7-10-7-10-(12)---10-7-10-7-10-(12)-|
|-7---7---7-9---7---7---7-9-----------------------------------------|
|---9---9---------9---9---------------------------------------------|
|-------------------------------------------------------------------|
|-------------------------------------------------------------------|

|-10-7-10-7-10-(12)---10-7-10-7-10-(12)---15-17---14-15---|
|-10-7-10-7-10-(12)---10-7-10-7-10-(12)-------------------|
|---------------------------------------------------------|
|---------------------------------------------------------|
|---------------------------------------------------------|
|---------------------------------------------------------|

|-12----10----8---5-----5--7--8--10--(12)-----|
|----12----10---7---5---5--7--8--10--(12)-----|
|---------------------------------------------|
|---------------------------------------------|
|---------------------------------------------|
|---------------------------------------------|

Intro 2  (x4)
|-12-12-12-12-12-12-12-12-10-10-10-10-10-10-10-10-8--8--8--8--8--8--8--8--|
|-12-12-12-12-12-12-12-12-12-12-12-12-12-12-12-12-10-10-10-10-10-10-10-10-|
|-------------------------------------------------------------------------|
|-------------------------------------------------------------------------|
|-------------------------------------------------------------------------|
|-------------------------------------------------------------------------|
[ Tab from: http://www.guitartabs.cc/tabs/t/turbonegro/age_of_pomparius_tab.html ]
|-12-12-12-12-12-12-12-12-10-10-10-10-10-10-10-|
|-12-12-12-12-12-12-12-12-12-12-12-12-12-12-12-|
|----------------------------------------------|
|----------------------------------------------|
|----------------------------------------------|
|----------------------------------------------|
                          
|-----------|
|-----------|
|-----------|
|-5-3-2-----|
|-5-3-2-----|
|-3-1-0-----|

Actual song:

Riff 1 (x2)
|-------------------------------------------------------|
|-------------------------------------------------------|
|---------------------12-12-12-11-11-7-12-12-12-11-11-7-|
|-2-2-2-2-2-2-2-2-----12-12-12-11-11-7-12-12-12-11-11-7-|
|-2-2-2-2-2-2-2-2-----10-10-10--9--9-5-10-10-10--9--9-5-|
|-0-0-0-0-0-0-0-0---------------------------------------|

Riff 2 (x4)              
|------------------------|
|------------------------|
|------------------------|
|-2-2----xx-7--7--7--7/--|
|-2-2----xx-7--7--7--7/--|
|-0-0----xx-5--5--5--5/--|

Riff 3
|-----------------------------------------------------------------|
|-----------------------------------------------------------------|
|-----------------------------------------------------------------|
|-7-7-7-7-7-7-7-7-2-2-2-2-2-2-2-2-5-5-5-5-5-5-5-5-2-2-2-2-2-2-2-2-|
|-7-7-7-7-7-7-7-7-2-2-2-2-2-2-2-2-5-5-5-5-5-5-5-5-2-2-2-2-2-2-2-2-|
|-5-5-5-5-5-5-5-5-0-0-0-0-0-0-0-0-3-3-3-3-3-3-3-3-0-0-0-0-0-0-0-0-|

|-----------------------------------------------------------------|
|-----------------------------------------------------------------|
|-----------------------------------------------------------------|
|-7-7-7-7-7-7-7-7-2-2-2-2-2-2-2-2-5-5-5-5-5-5-5-5-5-5-5-5-5-5-5-5-|
|-7-7-7-7-7-7-7-7-2-2-2-2-2-2-2-2-5-5-5-5-5-5-5-5-5-5-5-5-5-5-5-5-|
|-5-5-5-5-5-5-5-5-0-0-0-0-0-0-0-0-3-3-3-3-3-3-3-3-3-3-3-3-3-3-3-3-|

|------------|
|------------|
|------------|
|-7-7-7--5-4-|
|-7-7-7--5-4-|
|-5-5-5--3-2-|

Riff 1

Riff 2

Riff 3

Bridge (x4)
|----------------------|
|----------------------|
|-13-9-12-7-7-12-14-10-|
|----------------------|
|----------------------|
|----------------------|

Riff 3

Riff 1

Outro
|-------------------------------------------------|
|-------------------------------------------------|
|-------------------------------------------------|
|-9-9-9-9-9-9-9-9-7-7-7-7-7-7-7-7-2-2-2-2-2-2-2-2-|
|-9-9-9-9-9-9-9-9-7-7-7-7-7-7-7-7-2-2-2-2-2-2-2-2-|
|-7-7-7-7-7-7-7-7-5-5-5-5-5-5-5-5-0-0-0-0-0-0-0-0-|

|---|
|---|
|---|
|-2-|
|-2-|
|-0-|

2005 by Kevin Johnson


                        



Comments