Tura Satana - Storage Chords & Tabs

 

Storage Chords & Tabs

Tura Satana Chords & Tabs

Version: 1 Type: Bass Tab 0 ratings
1 star 2 stars 3 stars 4 stars 5 stars
comments

Storage Bass Tab

Band   : Tura Satana
Album : Relief Through Release
Song   : Storage

Tabbed by : Bucon (Mark D.)

Drop D Tuning						

Riff 1 :							
G|--------------------------------------------|		
D|--------------------------------------------|		
A|--------------------------------------------|		
D|--7--7---7--9--8--7----7--7---12--11--8~~~--|		

[ Tab from: http://www.guitartabs.cc/tabs/t/tura_satana/storage_btab.html ]
Riff 2 : 							
G|------------------------------------|	
D|------------------------------------|	
A|------------------------------------|		
D|----7-7-7-7-7-7-7-7-7-7-7-7-7-7-7-7-|		
								
G|------------------------------------|		
D|------------------------------------|		
A|------------------------------------|		
D|----8-8-8-8-8-8-8-8-8-8-8-8-8-8-8-8-|				

I think the string is stuck 16 times,
but it's fast, so im not 100% sure.
								
Riff 3 :							
G|-----------------------------------|
D|-----------------------------------|		
A|-----------------------------------|
D|---------5--6--3--5--2-------------|		

Piece all the bits together in the right order, 
and it should sound half-decent :)


Send comments/corrections/TS Tabs(guitar/bass)/flames 
to : bucon@eircom.net, 
or come find me on :

irc.phishy.net ( The Phriendly IRC Network).

Comments