Tura Satana - Eternalux Chords & Tabs

 

Eternalux Chords & Tabs

Tura Satana Chords & Tabs

Version: 2 Type: Bass Tab 0 ratings
1 star 2 stars 3 stars 4 stars 5 stars
comments

Eternalux Bass Tab

Band   : Tura Satana
Album  : Relief Through Release
Song   : Eternalux

Tabbed by : Bucon (Mark D.)

Drop D Tuning						

Riff 1 :							
G|-----------------------------------|		
D|-----------------------------------|		
A|-----------------------------------|		
D|-----7-7-8-11-8-7--7-7-8-5---------|		

Bridge 1 : 							
G|-----------------------------------|		
D|-----------------------------------|		
A|-----------------------------------|		
D|----------7---3---2----------------|		

Riff 2 : 							
G|-----------------------------------|		
D|-----------------------------------|		
A|-----------------------------------|		
D|-7--7-8-8-8--2-2-2-2-3-3-3-3-------|		
[ Tab from: http://www.guitartabs.cc/tabs/t/tura_satana/eternalux_btab_ver_2.html ]
								
G|-----------------------------------|		
D|-----------------------------------|		
A|-----------------------------------|		
D|--7--7-8-8-8--2-2-2-2-10-10-10-10--|		
			
								
Bridge 2 :							
G|-----------------------------------|		
D|-----------------------------------|		
A|-----------------------------------|		
D|---------7--13--12--10-------------|		
								
Riff 3 :							
G|-----------------------------------|
D|-----------------------------------|		
A|-----------------------------------|
D|--7-7-8-7---7-6---6-5---5-3--------|		

Piece all the bits together in the right order,
and it should sound half-decent :)


Send comments/corrections/TS Tabs(guitar/bass)/flames 
to : bucon@eircom.net, 
or come find me on :

irc.phishy.net ( The Phriendly IRC Network).
Comments