Tupac Shakur - Thugz Mansion Chords & Tabs

 

Thugz Mansion Chords & Tabs

Tupac Shakur Chords & Tabs

Version: 1 Type: Tab 0 ratings
1 star 2 stars 3 stars 4 stars 5 stars
comments

Thugz Mansion Tab

I have seen too many pathetic tabs for this song so I put it upon myself
to come up with my own. -Rich Money.

E-----------------4---4-----------------------4s6-6-4s6--1--3---------------]
B-----------------4---4----------------4---4--4s6-6-4s6--2--4--4s6--4s6-4s6-]
G--5s3-5s3--------5---5--6-5-----------5---5-------------3--5--3s5--3s5-3s5-]
D-----------------6---6------8-6-------5---5-------------3--5---------------]
A-----------------6---6----------8---3---3---------------1--3---------------]
E---------------4---4-------------------------------------------------------]

[ Tab from: http://www.guitartabs.cc/tabs/t/tupac_shakur/thugz_mansion_tab.html ]
E--1--3--6-----------4---4-4h6p4-----------------------3--8-8h9p8--1--3-----]
B--2--4--5-----------4---4----------6--9-8-----4----4--------------2--4--4s6]
G--3--5--5--6-5------5---5-------6h8-----------5----5--------------3--5--3s6]
D--3--5---------8----6---6---------------------5----5--------------3--5-----]
A--1--3--------------6---6------------------3----3-----------------1--3-----]
E------------------4---4----------------------------------------------------]


E--1--3--6--6--------4---4--4------3---3---------1--3--------1--3--6--6-----]
B--2--4--5----5------4---4--4------4---4---------2--4--4s6---2--4--5----5---]
G--3--5--5------5----5---5--5------5---5---------3--5--3s6---3--5--5------5-]
D--3--5--------------6---6--6------5---5---------3--5--------3--5-----------]
A--1--3--------------6---6--6---3----3-----------1--3--------1--3-----------]
E------------------4---4----4-----------------------------------------------]

That's basically it.  It is definitely a tough one to figure out.  There are a
few missing hammers and small things in the background that I didn't feel like
tabbing.  For the most part this is it though, and it repeats itself through the
song. If I get enough patience, maybe another day, I will tab out the outro.
Enjoy...
Comments