Tupac Shakur - Thugz Mansion Acoustic Chords & Tabs

 

Thugz Mansion Acoustic Chords & Tabs

Tupac Shakur Chords & Tabs

Version: 6 Type: Tab 0 ratings
1 star 2 stars 3 stars 4 stars 5 stars
comments

Thugz Mansion Acoustic Tab

Tupac Shakur feat. Nas
Thugz Mansion (acoustic)

e|----------------------------------------------------------------|
B|-----------------4--4------2p1-----------------4--4-------------|
G|--4p3-4p3--------5--5----------3p1-------------3--3-------------|
D|-----------------------------------3----------------------------|
A|------------------------------------------1/3--------3----------|
E|--------------4-------4-----------------------------------------|



e|---------6p4-4h6------------------------------------------------|
B|--4/6----------------2----4---4/6--------2/4\2------------------|
G|---------------------1----2---2/4--------1/2\1------------------|
D|----------------------------------------------------------------|
A|----------------------------------------------------------------|
E|----------------------------------------------------------------|


[ Tab from: http://www.guitartabs.cc/tabs/t/tupac_shakur/thugz_mansion_acoustic_tab_ver_6.html ]
e|----------------------------------------------------------------|
B|-2--4---11------11----9------------4--4-------------------------|
G|-1--2---9----9----------8----------5--5-------------------------|
D|----------------------------------------------------------------|
A|----------------------------------------------------------------|
E|-----------------------------1/4---------4----------------------|



e|--4h6p4-------4-3---------------8-8-8/9\8-----------------------|
B|----------4-6-----4--4-----------------------2---4---4/6--------|
G|--------5---------3--3-----------------------1---2---2/4--------|
D|----------------------------------------------------------------|
A|-------------------------3--------------------------------------|
E|----------------------------------------------------------------|



e|----------------------------------------------------------------|
B|-2---4---11-----11-----9p8--------------------------------------|
G|-1---2---9----9-----------10p8----------------------------------|
D|----------------------------------------------------------------|
A|----------------------------------------------------------------|
E|----------------------------------------------------------------|

this is basically how it goes. So ENJOY!
Comments