Tupac Shakur - Only God Can Judge Me Chords & Tabs

 

Only God Can Judge Me Chords & Tabs

Tupac Shakur Chords & Tabs

Version: 1 Type: Bass Tab 0 ratings
1 star 2 stars 3 stars 4 stars 5 stars
comments

Only God Can Judge Me Bass Tab

---------------------
Only God Can Judge Me
---------------------
from 2PAC album "All Eyez On Me"
tab by Matt Clark, Matt.Clark@umit.maine.edu


 / is slide
 h means hammer on


 Intro (Bass)                                          
|-------------------------------------------------|
|-------------------------------------------------|
|-------------------------------------------------|
|-2/14--(long slide)------------------------------|


 Verse
|-------------------------------------------------|
|-------------------------------------------------|
|---4---0h2----0h2--2-2--5--4---------------------|
|-2---2-------------------------------------------|

[ Tab from: http://www.guitartabs.cc/tabs/t/tupac_shakur/only_god_can_judge_me_btab.html ]
 Chorus
 "Only God can judge me, only God...."
 
 The chorus alternates usually between this line
|-------------------------------------------------|
|-------------------------------------------------|
|-5---5-4---4-------------------------------------|
|-------------2-----------------------------------|

 And this one
|-------------------------------------------------|
|-------------------------------------------------|
|-5---5-4---4--4/9--------------------------------|
|-------------------------------------------------|

 Sometimes there is a little fill like
|-------------------------------------------------|
|---------------------6-7-6-----------------------|
|-5---5-4---4--4/9--9-------9-7-------------------|
|-------------------------------------------------|

Comments