Tupac Shakur - I Aint Mad At Cha Chords & Tabs

 

I Aint Mad At Cha Chords & Tabs

Tupac Shakur Chords & Tabs

Version: 1 Type: Bass Tab 0 ratings
1 star 2 stars 3 stars 4 stars 5 stars
comments

I Aint Mad At Cha Bass Tab

Artist: 2pac Shakur
Song: I ain't mad at cha

*Note: This is my 1st tab, so I dont exactly know how to write
the timing of it, but just listen to the song and you'll figure
it out.

Tab by: YoBata@yahoo.com

Bass Tab for I ain't mad at cha
[ Tab from: http://www.guitartabs.cc/tabs/t/tupac_shakur/i_aint_mad_at_cha_btab.html ]
G--------------3--1-----0-1-0-------
D---0-1-0-------------3-------3-1---
A-3-------3-----------------------1-
E-----------1-----------------------

G--------------3--1--0---0-0-
D------0---------------3-----
A--1-3---3-1-----------------
E------------1---------------
Comments