Tunnan Och Moroten - Snoppkaparen Ifrn Gteborg Chords & Tabs

 

Snoppkaparen Ifrn Gteborg Chords & Tabs

Tunnan Och Moroten Chords & Tabs

Version: 1 Type: Bass Tab

Snoppkaparen Ifrn Gteborg Bass Tab

Tunnan och Moroten- Snoppkaparen från Göteborg
Tabbad av Biberkolben 2006

G|------------------|
D|------------------|
A|-6-6-6-6-6-6-6--6-|
E|------------------|

G|------------------|
D|------------------|
A|-6-6-6-6-6-6-6-8--|
E|------------------|

G|---------------------------------|
D|---------------------------------|
A|-6-6-6-6-6-6-6--6-6-6-6-8---8----|
E| -------------------------9---9--|

G|------------------|
D|------------------|
A|-6-6-6-6-6-6-6--6-|
E|------------------|

G|--------------------|
D|--------------------|
A|-6-6-6-6-6-6-6--6-6-|
E|--------------------|

G|-----------------------------------|
D|-----------------------------------|
A|-6-6-6-6-6-6-6-6--6-6-6-6-8---8----|
E|----------------------------9---9--|

G|----------------------------------------|
D|---5--5--5--5--5--5--5------------------|
A|-(10-10-10-10-10-10-10)-----------------|
E|-------------------------3-3-3-3-3-3-3--| x3

G|----------------------------|
D|---5--5--5--5--5--5--5--5---|
A|-(10-10-10-10-10-10-10-10)--|
E|----------------------------|
[ Tab from: http://www.guitartabs.cc/tabs/t/tunnan_och_moroten/snoppkaparen_ifrn_gteborg_btab.html ]
G|------------------|
D|------------------|
A|-6-6-6-6-6-6-6--6-|
E|------------------|

G|--------------------|
D|--------------------|
A|-6-6-6-6-6-6-6--6-6-|
E|--------------------|

G|-------------------------------|
D|-------------------------------|
A|-6-6-6-6-6-6-6--8-----8-----8--|
E|------------------9-8---9-8----|

G|------------------------------|
D|------------------------------|
A|-6-6-6-6-6-6-6--6-6-6--6-6-6--|
E|------------------------------|

G|--------------------------------------|
D|--------------------5--------5--------|
A|-6-6-6-6-6-6-6-6--(10-------10)-------|
E|----------------------3-3-3----3-3-3--|

G|------------|
D|---5--------|
A|-(10)-------|
E|-----3-3-3--| x4

G|--------------------|
D|---5----------------|
A|-(10)---------------|
E|-----3-3-3-3-3-3-3--| x3

G|---------------|
D|-------5----5--|
A|-----(10---10)-|
E|-3-3-----3-----|

G|------------------|
D|------------------|
A|------------------|
E|-3-3-3-3-3-3-3-3--| x3

G|-------------------------------|
D|-------------------------------|
A|-8-----8-----8-----8-----------|
E|---9-8---9-8---9-8---9-8-3-3-3-|

OBS! Det som är inom parantes är det sätt jag spelar låten på. Kanske lite svårare?