Tuck Andress - Time After Time Chords & Tabs

 

Time After Time Chords & Tabs

Tuck Andress Chords & Tabs

Version: 1 Type: Tab 0 ratings
1 star 2 stars 3 stars 4 stars 5 stars
comments

Time After Time Tab

   
Tuck and Patty 
Song "Time After Time" originally by Cyndi Laupher

Into 
(Repeat 2 times)
*    C
e:----------------------------------------H----------------|
b:---1---------1--1---------1--1---------0-1--O------------|
g:------0------------0------------0------------------------|
d:---------2------------2------------2---------------------|
a:---------------------------------------------------------|
e:---------------------------------------------------------|
     
e:---------------------------------------------------------|
b:---3--------3--3--------3--1-------1-1-------------------|
g:-----0------------0-----------0--------0-----------------|
d:-------2-------------2----------2--------2---------------|
a:---------------------------------------------------------|
e:---------------------------------------------------------|

Verse 1
(Repeat for Whole Verse) 
     C
e:---------------------------------------------------------|
b:----------1--------1--------------1--------1-------------|
g:------0---------0--------------0--------0----------------|
d:---3---------2--------0--2--3--------2-------------------|
a:---------------------------------------------------------|
e:---------------------------------------------------------|
Ly'n in my bed at night .....
[ Tab from: http://www.guitartabs.cc/tabs/t/tuck_andress/time_after_time_tab.html ]
e:---------------------------------------------------------|
b:--------------1--------1--------------1--------1---------|
g:-----------0--------0--------------0--------0------------|
d:--0--2--3--------2--------0--2--3--------2---------------|
a:---------------------------------------------------------|
e:---------------------------------------------------------|
The clock ticks 

Break
(Repeat 3 Times) (Use Barchords in break section)
     F                 G                 C
e:---------------------------------------------------------|
b:-------------1-----------------3---------------5---5-----|
g:----------2-----------------4---------------5--------5---|
d:-----------------------------------------5--------------5|
a:-------3-----------------5------------3------------------|
e:----1-----------------3----------------------------------|
You  Say    Go Slow

Chorus
     G                              Am
e:-------3--3-----3--3-----3-------------------------------|
b:-------3--3-----3--3-----3-----------------2--2----------|
g:----------------------------------------2--------2-------|
d:-------------------------------------3--------------3----|
a:----2--------2--------2-----------0----------------------|
e:----3--------3--------3----------------------------------|
If you f...

      C           C           G           C
e:---------------------------------------------------------|
b:----1-----------1-----------------------1----------------|
g:---------------------------------------------------------|
d:----2-----------2-----------------------2----------------|
a:----3-----------3-----------2-----------3----------------|
e:----------------------------3----------------------------|
Time Af-ter Time
Comments