Tubes - Talk To Ya Later Chords & Tabs

 

Talk To Ya Later Chords & Tabs

Tubes Chords & Tabs

Version: 1 Type: Tab 0 ratings
1 star 2 stars 3 stars 4 stars 5 stars
comments

Talk To Ya Later Tab

   
artist-The Tubes
song-Talk To Ya Later
album-Completion Backwards Principal
words by-Fee Waybill
guitarist-Bill Spooner,Roger Steen 
tabbed by-smellslikefeet1
b-1/4bend up
B-full bend up
p-pull off
h- hammeron
s-slide
~-vabrato


As I Mentioned near the close of the last record, this record you are now playing is
another example of the completion backward principal. If you can possibly manage the
time, please play both sides at one meeting.

intro
guitar 1
|------------------|
|-2-4-5--2-4-5-----|
|-2-4-6--2-4-6-----|
|------------------|
|------------------|x4
|------------------|

intro fill guitar2
|----------------------|
|-12-----------19b~----|
|----------------------|
|----------------------|
|----------------------|
|----------------------|

verse1
guitar1 palmute
|----------|----------|----------|-----------|
|----------|----------|----------|-----------|
|----------|----------|----------|-----------|
|-7-7-7-7--|-7-7-7-7--|-9-9-9-9--|-9-9-9-9---|x4
|-7-7-7-7--|-7-7-7-7--|-9-9-9-9--|-9-9-9-9---|
|-5-5-5-5--|-5-5-5-5--|-7-7-7-7--|-7-7-7-7---|
guitar2
|----------|----------|----------|------------|
|-2-4-5----|-2-4-5----|----------|---4-4------|
|-2-4-6----|-2-4-6----|----------|---4-4------|
|----------|----------|----------|------------|x4
|----------|----------|----------|------------|
|----------|----------|----------|------------|

pre chorus
guitar1
she wont ever miss me when im gone
|----------|----------|----------|----------|
|----------|----------|----------|----------|
|----------|----------|-6-6-6-6--|-2-2-2-2--|
|-6-6-6-6--|-7-7-7-7--|-6-6-6-6--|-2-2-2-2--|
|-6-6-6-6--|-7-7-7-7--|-4-4-4-4--|-0-0-0-0--|
|-4-4-4-4--|-5-5-5-5--|----------|----------|
guitar2
|----------|----------|----------|----------|
|-5-5-5-5--|-4-4-4-4--|-2-2-2-2--|----------|
|----------|----------|----------|-4-4-4-4--|
|----------|----------|----------|----------|
|----------|----------|----------|----------|
|----------|----------|----------|----------|

guitar1 
thats ok with me ill cry later on
|----------|----------|----------|----------|
|----------|----------|----------|----------|
|----------|----------|-7-7-7-7--|--4-4-----|
|-6-6-6-6--|-7-7-7-7--|-7-7-7-7--|--4-4-----|last chrods are shots
|-6-6-6-6--|-7-7-7-7--|-5-5-5-5--|--2-2-----|
|-4-4-4-4--|-5-5-5-5--|----------|----------|

guitar2
|----------|----------|----------|----------|
|-5-5-5-5--|-4-4-4-4--|-7-7-7-7--|-7-7-7-7--|
|----------|----------|----------|----------|
|----------|----------|----------|----------|
|----------|----------|----------|----------|
|----------|----------|----------|----------|

verse2
guitar1 palmute
|----------|----------|----------|-----------|
|----------|----------|----------|-----------|
|----------|----------|----------|-----------|
|-7-7-7-7--|-7-7-7-7--|-9-9-9-9--|-9-9-9-9---|x2
|-7-7-7-7--|-7-7-7-7--|-9-9-9-9--|-9-9-9-9---|
|-5-5-5-5--|-5-5-5-5--|-7-7-7-7--|-7-7-7-7---|
guitar2
|----------|----------|----------|-----------|
|-2-4-5----|-2-4-5----|----------|---4-4-----|
|-2-4-6----|-2-4-6----|----------|---4-4-----|
|----------|----------|----------|-----------|x2
|----------|----------|----------|-----------|
|----------|----------|----------|-----------|

pre chorus again
[ Tab from: http://www.guitartabs.cc/tabs/t/tubes/talk_to_ya_later_tab.html ]
chorus
guitar1
talk to ya later dotn wanna hear it again tonight
|----------|----------|----------|--------------|
|----------|----------|----------|--------------|
|----------|----------|----------|--------------|
|-2-2-2-2--|-2-2-2-2--|-7-7-7-7--|--------------|
|-2-2-2-2--|-2-2-2-2--|-7-7-7-7--|-2------------|
|-0-0-0-0--|-0-0-0-0--|-5-5-5-5--|---5-4-2-4-5-4|

guitar2
|----------|----------|---------|----------|
|----------|----------|-2-4-5---|----------|
|----------|----------|-2-4-6---|-6-6-4-4--|
|-2-2-2-2--|-7-7-6-7--|---------|-6-6-4-4--|
|-2-2-2-2--|-7-7-6-7--|---------|-4-4-2-2--|
|-0-0-0-0--|-5-5-4-5--|---------|----------|

talk to ya later jsut save it for another guy
|----------|----------|----------|----------|
|----------|----------|----------|----------|
|----------|----------|----------|-----6-4--|
|-2-2-2-2--|-2-2-2-2--|-7-7-7-7--|-----6-4--|
|-2-2-2-2--|-2-2-2-2--|-7-7-7-7--|-----4-2--|
|-0-0-0-0--|-0-0-0-0--|-5-5-5-5--|----------|

guitar2
|----------|----------|---------|----------|
|----------|----------|-2-4-5---|----------|
|----------|----------|-2-4-6---|-6-6-4-4--|
|-2-2-2-2--|-7-7-6-7--|---------|-6-6-4-4--|
|-2-2-2-2--|-7-7-6-7--|---------|-4-4-2-2--|
|-0-0-0-0--|-5-5-4-5--|---------|----------|


talk to ya later dotn wanna hear it again tonight
|----------|----------|----------|--------------|
|----------|----------|----------|--------------|
|----------|----------|----------|--------------|
|-2-2-2-2--|-2-2-2-2--|-7-7-7-7--|--------------|
|-2-2-2-2--|-2-2-2-2--|-7-7-7-7--|-2------------|
|-0-0-0-0--|-0-0-0-0--|-5-5-5-5--|---5-4-2-4-5-4|

guitar2
|----------|----------|---------|----------|
|----------|----------|-2-4-5---|----------|
|----------|----------|-2-4-6---|-6-6-4-4--|
|-2-2-2-2--|-7-7-6-7--|---------|-6-6-4-4--|
|-2-2-2-2--|-7-7-6-7--|---------|-4-4-2-2--|
|-0-0-0-0--|-5-5-4-5--|---------|----------|

ill jsut see you around

|----------------------|
|----------------------|
|-6--2--6----4---9--9--|fast
|-6--2--6----4---9--9--|
|-4--0--4----2---7--7--|
|----------------------|

get out 

verse3
verse chords and guitarx4

solo1
through verse3
its all in parts you jsut have to listen
part1        part2                    part3
|-----------|-15b14p12------------|-----------------|
|-15B-14p12~|---------15-14p12-12~|-----------------|
|-----------|---------------------|-----------2B~~~~|
|-----------|---------------------|-----------------|
|-----------|---------------------|-----------------|
|-----------|---------------------|-----------------|

pre chorus
chorus
synthiziser and keyboard solo(commming soon)
outro from solo

|----------|----------|----------|-----------|
|----------|----------|----------|-----------|
|----------|----------|----------|-----------|
|-7-7-7-7--|-7-7-7-7--|-9-9-9-9--|-9-9-9-9---|
							
															
													
Comments