Tsunami Bomb - Take The Reins Chords & Tabs

 

Take The Reins Chords & Tabs

Tsunami Bomb Chords & Tabs

Version: 4 Type: Tab 0 ratings
1 star 2 stars 3 stars 4 stars 5 stars
comments

Take The Reins Tab

Title: Take the Reins
By:    Tsunami Bomb

Tabbed by Chris Williams

I saw this tab on the net, and i realised it was tabbed out wrong all
the way through. So i  wanted to use it in my band so i had to 
tab out the whole thing as it was originally tabbed too low.So here it is!
I think this is pretty much spot on. So any questions or 

corrections email me at the_number_of_the_beast66686@hotmail.com 

Intro with Drums

e|---------------------------------------------------------------------------|
B|---------------------------------------------------------------------------|
G|---------------------------------------------------------------------------|
D|----10~---------------------10\-------8\---------7\----------5\----------8-|
A|----10~---------------------10\-------8\---------7\----------5\----------8-|
E|----8~-----------------------8\-------6\---------5\----------3\----------6-|

Solo Riff  (No Drums or bass just the solo, until its played the second time)
e|-----------------------------------------------------------------------------|
B|-----------------------------------------------------------------------------|
G|-----------------------------------------------------------------------------|
D|-----------------------------------------------------------------------------|
A|-------10-8-6-5--------10-8-6-5-------10-8-6-5-6-6-10-8-11-10----------------|
E|--8-8--------------6-6---------------5-5-------------------------------------|

Verse (18, you think you're free)
e|-----------------------------------------------------------------------------|
B|-----------------------------------------------------------------------------|
G|-----------------------------------------------------------------------------|
D|--10--10--------10-10----8---8-------8---8-----7---7-------------------------|
A|--10--10--------10-10----8---8-------8---8-----7---7-------------------------|
E|---8---8---------8---8---6---6-------6---6-----5---5-------------------------|
[ Tab from: http://www.guitartabs.cc/tabs/t/tsunami_bomb/take_the_reins_tab_ver_4.html ]
e|------------------------------------------|
B|------------------------------------------|
G|------------------------------------------|
D|--7---7---5---5---5---8---8---8-----------|
A|--7---7---5---5---5---8---8---8-----------|
E|--5---5---3---3---3---6---6---6-----------|

Pre Chorus Fill
e|-----------------------------------|
B|-----------------------------------|
G|---5-----------------8-------------|
D|---5---------6-------8-------8-----|
A|---3---------6-------6-------8-----|
E|-------------4---------------6-----|

Chorus
e|------------------------------------------------------------|
B|------------------------------------------------------------|
G|---5--5--5--5----------------------------------8--8--7--7---|
D|---5--5--5--5------6--6--6--6---8--8--8--8-----8--8--7--7---|
A|---3--3--3--3------6--6--6--6---8--8--8--8-----6--6--5--5---|
E|-------------------4--4--4--4---6--6--6--6------------------|

Interlude Fill
e|-----------------------------------------------------------------|
B|-----------------------------------------------------------------|
G|---5------5------8----------------5------------------------------|
D|---5------5------8------8----8----5------------------------------|
A|---3------3------6------8----8----3------------------------------|
E|------------------------6----6-----------------------------------|



Order

Intro x 2
Solo x2
Verse x 2
Solo x2
Verse x2
Pre Chorus Fill
Chorus x2
Verse x2
Pre Chorus Fill
Chorus x2
Verse PM x2
Interlude Fill
Pre Chorus Fill




Lyrics
18 you think you're free
to be what you wanna be
Have a job or 2 or 3-
You'll say you're sorry
Don't try to run or fight
Ask how or when or why
Who cares what wrong or right
It's money that matters

Each day just like the next
We stuggle on and on
In nightmares, but we're still marching
Handcuffed to life again
Don't try they'll only push you down
What's opportunity?
You've got what you've wanted now!

How long 'till I'm my own?
Independence doesn't start when you leave home

Locked in, can't get out
Your cube is your new home
4 walls; no windows, no doors
Handcuffed to life again
Don't try they'll only push you down
What's opportunity?
You've got what you wanted now!

How long 'till I'm my own?
Independence doesn't start when you leave home

Handcuffed to life again
What's opportunity?
You've got what you wanted now!

How long 'till I'm my own?
Independence doesn't start when you leave home (2x)
Comments