Tsunami Bomb - Not Forever Chords & Tabs

 

Not Forever Chords & Tabs

Tsunami Bomb Chords & Tabs

Version: 2 Type: Tab 0 ratings
1 star 2 stars 3 stars 4 stars 5 stars
comments

Not Forever Tab

Band: Tsunami Bomb
Song Title: Not Forever
Album: The Invasion From Within!
Tabbed By: Joey Poth - Guitarist
Email Address: cheshire_the_kat@hotmail.com
Ask me about other punk tabs and I'll them on ultimate-guitar.com

Intro - Play 4 Times
~~~~~
E|------------------------------------------------------------------------|
B|------------------------------------------------------------------------|
D|-----9------10----------------------------4----4------4-5-5-5-7-7-7-4---|
D|-7-7---7-7-----7-7-10-10-10-9-9-9-7-7-5-5---5-5---5-5-----------------5-|     
A|------------------------------------------------------------------------|   
E|------------------------------------------------------------------------|   

Intro End - Play Once
~~~~~~~~~
e|------------------------------------------------------------------------|
B|------------------------------------------------------------------------|
G|-----9------10----------------------------4----4----4-5-5-5-4-----------|
D|-7-7---7-7-----7-7-10-10-10-9-9-9-7-7-5-5---5-5---5---3-3-3-2-----------|     
A|------------------------------------------------------------------------|   
E|------------------------------------------------------------------------|  

Verse - Play 5 Times 
~~~~~
e|--------------------------------------------------------------------| 
B|--------------------------------------------------------------------| 
G|10-10-10--9-9-9-----------------------------------------------------| 
D|10-10-10--9-9-9--7-xxxxxxxx-----------------------------------------| 
A|-8--8--8--7-7-7--7-xxxxxxxx-----------------------------------------| 
E|-----------------5-xxxxxxxx-----------------------------------------| 
[ Tab from: http://www.guitartabs.cc/tabs/t/tsunami_bomb/not_forever_tab_ver_2.html ]
End of Verse - Play Once 
~~~~~~~~~~~~
e|--------------------------------------------------------------------| 
B|--------------------------------------------------------------------| 
G|10-10-10--9-9-9-----------------------------------------------------| 
D|10-10-10--9-9-9--7--------------------------------------------------| 
A|-8--8--8--7-7-7--7—let ring-----------------------------------------| 
E|-----------------5--------------------------------------------------| 

Chorus - Play 2 Times 
~~~~~~
e|--------------------------------------------------------------------| 
B|--------------------------------------------------------------------| 
G|-----------------7-7-7-7-7-7-7-7--10-10-10--9-9-9--5-5-5-5-5-5-5-5--| 
D|5-5-5-5-5-5-5-5--7-7-7-7-7-7-7-7--10-10-10--9-9-9--5-5-5-5-5-5-5-5--| 
A|5-5-5-5-5-5-5-5--5-5-5-5-5-5-5-5---8--8--8--7-7-7--3-3-3-3-3-3-3-3--| 
E|3-3-3-3-3-3-3-3-----------------------------------------------------| 

Then This 
~~~~~~~~~
e|--------------------------------------------------------------------| 
B|--------------------------------------------------------------------| 
G|-----------------7-7-7-7-7-7-7-7--10--9--10--9--7--5----------------| 
D|5-5-5-5-5-5-5-5--7-7-7-7-7-7-7-7--10--9--10--9—-7--5----------------| 
A|5-5-5-5-5-5-5-5--5-5-5-5-5-5-5-5---8--7---8--7--5--3----------------| 
E|3-3-3-3-3-3-3-3-----------------------------------------------------| 

Then This - 4 Times
~~~~~~~~~
e|--------------------------------------------------------------------| 
B|--------------------------------------------------------------------| 
G|7-7-7-7------------------------10-10-10-10--------------------------| 
D|7-7-7-7--7-7-7-7--10-10-10-10--10-10-10-10--------------------------| 
A|5-5-5-5--7-7-7-7--10-10-10-10---8--8--8--8--------------------------| 
E|---------5-5-5-5---8--8--8--8---------------------------------------| 

This Once
~~~~ 
e|--------------------------------------------------------------------| 
B|--------------------------------------------------------------------| 
G|7-------------------------------------------------------------------| 
D|7-Let Ring----------------------------------------------------------| 
A|5-------------------------------------------------------------------| 
E|--------------------------------------------------------------------| 

Thats my tab remember ask me for other punk tabs and ill make them
Comments