Tsunami Bomb - No Good Very Bad Day Chords & Tabs

 

No Good Very Bad Day Chords & Tabs

Tsunami Bomb Chords & Tabs

Version: 1 Type: Bass Tab 0 ratings
1 star 2 stars 3 stars 4 stars 5 stars
comments

No Good Very Bad Day Bass Tab

Title: No Good Very Bad Day
Artist: Tsunami Bomb
Tabbed by: banny      banny_skates@hotmail.com

> means repeat numerous times

INTRO
G|---------------------------------------------------------
D|---------------------------------------------------------  x4
A|-5-5-5-5-5-5---------------------------------------------
E|-------------3-3-5-5-5-5---------------------------------

VERSE
G|---------------------------------------------------------
D|----------7>---------------------------------------------  x6
A|-5>----7>------------------------------------------------
E|----3>---------------------------------------------------
[ Tab from: http://www.guitartabs.cc/tabs/t/tsunami_bomb/no_good_very_bad_day_btab.html ]
CHORUS
G|---------------------------------------------------------
D|---------7-----------------------------------------------  x4 (Odd Rhythm)
A|-5>---7>-------------------------------------------------
E|----3----------------------------------------------------

VERSE x6

2nd CHORUS
G|---------------------------------------------------------
D|---------------------------------------------------------  x5 (Can be heard better
A|-10>-7-12>-----------------------------------------------  when just Dom, Oob & Gabe)
E|-----------10--------------------------------------------

VERSE x 2 (Slow Version - While M & Brian Singing Slowley)

LAST CHORUS
G|---------------------------------------------------------
D|----------7>----------7>---------------------------------
A|-5>----7>----5>----7>----5-------------------------------
E|----3>----------3>---------------------------------------
Comments