Tsunami Bomb - Lemonade Chords & Tabs

 

Lemonade Chords & Tabs

Tsunami Bomb Chords & Tabs

Version: 6 Type: Tab

Lemonade Tab

Tsunami Bomb - Lemonade
Tab - Johnny B.

READY FOR THE EASIEST SONG IN THE WORLD?!
all these bastards cant tab the easiest of songs, so i guess ill do it. it basicly takes 
brainpower to play this.

For the intro use some harmonics then a pic slide, you figure it out.


Verse:
supposed to be a bass, but on guitar play this.
e-----------------------------------------------------------------------------------------|
B-----------------------------------------------------------------------------------------|
G-----------------------------------------------------------------------------------------|
D-----------------------------------------------------------------------------------------|
A-----------------------14--14--14--14-14-14----------------------------------------------|
E--15--15--15--15-15-15-----------------------12--12--12--12-12-12--10--10--10--10-10-10--|
[ Tab from: http://www.guitartabs.cc/tabs/t/tsunami_bomb/lemonade_tab_ver_6.html ]
Chorus:
e-------------------------------------------------------------|
B-------------------------------------------------------------|
G-------------------------------9--9---9-9-9--7-7--5--4--2----|
D---5--5---5-5-5--9--9---9-9-9--9--9---9-9-9--7-7--5--4--2----|
A---5--5---5-5-5--9--9---9-9-9--7--7---7-7-7--5-5--3--2--0----|
E---3--3---3-3-3--7--7---7-7-7--------------------------------|

the so called "Solo": h = hammer on, p = pull off
e-------------------------------------------------------------|
B-------------------------------------------------------------|
G-------------------------------------------------------------|
D--5---5-h-7--------7-h-9-p-7---7-h-9---------4---------------|
A---------------7----------------------5-5-7------------------|
E-------------------------------------------------------------|

e-------------------------------------------------------------|
B-------------------------------------------------------------|
G-------------------------------------------------------------|
D--5---5-h-7--------7-h-9-p-7---7-h-9---------4---------------|
A---------------7----------------------5-5-7------------------|
E-------------------------------------------------------------|