Tsunami Bomb - Lemonade Chords & Tabs

 

Lemonade Chords & Tabs

Tsunami Bomb Chords & Tabs

Version: 3 Type: Tab 0 ratings
1 star 2 stars 3 stars 4 stars 5 stars
comments

Lemonade Tab

   
-------------------------------------------------------------------------------
			   LEMONADE - Tsunami Bomb
-------------------------------------------------------------------------------
Tabbed by:Evan Wilson

yes im the same guy who did version two, i found a careless (he he... careless)
mistake in the solo, only one note of a difference but whatever. It was really
bothering me so yea, i fixed the solo... by one note.

Tuning:Standard e b g d a e   high to low

| ~  let ring
| \  pick slide
| x#  harmonic

intro
e|---------------------------------------------------------------------------|
B|---------------------------------------------------------------------------|
G|---------------------------------------------------------------------------|
D|-x7-x7--x7-x7----x6-x6--x6-x6----x5-x5--x5-x5------------------------------|
A|-x7-x7--x7-x7----x6-x6--x6-x6----x5-x5--x5-x5------------------------------|
E|-x5-x5--x5-x5----x6-x6--x6-x6----x5-x5--x5-x5------------------------------|

then hold d-2 and pick slide
          a-2
          e-2
[ Tab from: http://www.guitartabs.cc/tabs/t/tsunami_bomb/lemonade_tab_ver_3.html ]
chorus
e|---------------------------------------------------------------------------|
B|---------------------------------------------------------------------------|
G|-9-9-9-9-7~~-5-4-----------------9-9-9-9-7-7-5-4---------------------------|
D|-9-9-9-9-7~~-5-4-5-5-5-5-9-9-9-9-9-9-9-9-7-7-5-4---------------------------|
A|-7-7-7-7-5~~-3-2-5-5-5-5-9-9-9-9-7-7-7-7-5-5-3-2---------------------------|
E|-----------------3-3-3-3-7-7-7-7-------------------------------------------|

solo
e|---------------------------------------------------------------------------|
B|---------------------------------------------------------------------------|
G|---------------------------------------------------------------------------|
D|-5--7----9-7--9-----4-5-5--7----9-7--9-----4-5-----------------------------|
A|------7---------5-7----------7---------5-7---------------------------------|
E|---------------------------------------------------------------------------|

outro
e|---------------------------------------------------------------------------|
B|---------------------------------------------------------------------------|
G|---------------------------------------------------------------------------|
D|-5-------------------~---------------------------5-------------------------|
A|-5--twenty one times-~-wait fifteen seconds then-5-------------------------|
E|-3-------------------~---------------------------3-------------------------|

| ~  let ring
| \  pick slide
| x#  harmonic
===============================================================================
Comments