Tsunami Bomb - Lemonade Chords & Tabs

 

Lemonade Chords & Tabs

Tsunami Bomb Chords & Tabs

Version: 2 Type: Tab 0 ratings
1 star 2 stars 3 stars 4 stars 5 stars
comments

Lemonade Tab

   
Ok, this is my first tab. What surprises me is that no one else figured it out.
I don't know the solo but i have most of the song.

Standard Tuning

Intro:
e|---x-x-x-x   Listen to know when it's played
B|---x-x-x-x
G|---x-x-x-x
D|---x-x-x-x
A|---x-x-x-x
E|---x-x-x-x

Verse and such
[ Tab from: http://www.guitartabs.cc/tabs/t/tsunami_bomb/lemonade_tab_ver_2.html ]
e|--------------------------------------
B|--------------------------------------
G|---------------------9-9-9-9/7-7-7-5-4
D|-5-5-5-5-5/9-9-9-9-9-9-9-9-9/7-7-7-5-4
A|-5-5-5-5-5/9-9-9-9-9-7-7-7-7/5-5-5-3-2
E|-3-3-3-3-3/7-7-7-7-7------------------

THat's most of the song right there.
Like i said, I haven't figured out the solo yet. I'll work on it.
Comments