Tsunami Bomb - Being Alright Chords & Tabs

 

Being Alright Chords & Tabs

Tsunami Bomb Chords & Tabs

Version: 1 Type: Tab 0 ratings
1 star 2 stars 3 stars 4 stars 5 stars
comments

Being Alright Tab

Artist: Tsunami Bomb	
Song: Being Alright (track 2)
Album: The Definitive Act

Tabbed by Chris Williams

Intro prt1
|---------------|
|---------------|
|--2-2--777-999-|
|-42424-777-999-|
|-40404-555-777-|
|-2-2-2---------|
Intro prt2
|-----------------|
|-----------------|
|--2-2--777-999-11|
|-42424-777-999-x-|
|-40404-555-777-9-|
|-2-2-2-----------|
Intro prt3
|------------|
|-444-4------|
|-444-47-6-7-|
|-444-47-----|
|-222-25-----|
|------------|
Intro prt1 repeated
|---------------|
|---------------|
|--2-2--777-999-|
|-42424-777-999-|
|-40404-555-777-|
|-2-2-2---------|



Verse 1
|--------------------------------------|
|-2------77799911---2------777999------|
|--2-----77777711----2-----777777------|
|---4----555----9-----4----555---44444-|
|--------------------------------44444-|
|--------------------------------22222-|



Chorus Part1
|------------------------------|
|------------------------------|
|-7777----991111--7777---------|
|-77777777991111--777777774444-|
|-5555777777-9-9--555577774444-|
|-----5555------------55552222-|
Chorus Part2
|-------------------------------|
|-------------------------------|
|-7777----991111--7777----------|
|-77777777991111--7777777766764-|
|-5555777777-9-9--5555777766764-|
|-----5555------------555544542-|



Break part 1
|--------------------------------|
|--------------------------------|
|--------------------------------|
|----7777-----7777-----7777------|
|-47-7777--47-7777--47-7777-7777-|
|-47-5555--47-5555--47-5555-7777-|
|-25-------25-------25------5555-|

Break part 2
|--------------------------------------|
|--------------------------------------|
|--------------------------------------|
|----7777-----7777-----7777------99999-|
|-47-7777--47-7777--47-7777-7777-99999-|
|-47-5555--47-5555--47-5555-7777-77777-|
|-25-------25-------25------5555-------|



Verse 2
|---------------------------------------------|
|---------------------------------------------|
|-------------------------------77799911------|
|-first time bass only then-----77777711------|
|-------------------------------555----9------|
|---------------------------------------------|
Verse 3
|-----------------------------------------------------|
|-----------------------------------------------------|
|-------------------------------7779991111111111------|
|-first time bass only then-----7777771111111111------|
|-------------------------------555----9-9-9-9-9------|
|-----------------------------------------------------|



[ Tab from: http://www.guitartabs.cc/tabs/t/tsunami_bomb/being_alright_tab.html ]
Chorus Part1
|------------------------------|
|------------------------------|
|-7777----991111--7777---------|
|-77777777991111--777777774444-|
|-5555777777-9-9--555577774444-|
|-----5555------------55552222-|
Chorus Part2
|-------------------------------|
|-------------------------------|
|-7777----991111--7777----------|
|-77777777991111--7777777766764-|
|-5555777777-9-9--5555777766764-|
|-----5555------------555544542-|




Break part 1
|--------------------------------|
|--------------------------------|
|--------------------------------|
|----7777-----7777-----7777------|
|-47-7777--47-7777--47-7777-7777-|
|-47-5555--47-5555--47-5555-7777-|
|-25-------25-------25------5555-|

Break part 2
|--------------------------------------|
|--------------------------------------|
|--------------------------------------|
|----7777-----7777-----7777------99999-|
|-47-7777--47-7777--47-7777-7777-99999-|
|-47-5555--47-5555--47-5555-7777-77777-|
|-25-------25-------25------5555-------|




Bridge part 1 (all palm muted)
|-----------------------------------------------|
|-----------------------------------------------|
|-----------------------------------------------|
|-----------------------------------------------|
|----44477744-----44477744-----44477744---------|
|-222--------5-222--------5-222--------55445577-|

|-----------------------------------------------|
|-----------------------------------------------|
|-----------------------------------------------|
|----------------------------------------444444-|
|----44477744-----44477744-----44477744--444444-|
|-222--------5-222--------5-222--------55222222-|
			     PALM MUTE - ******



Chorus Part1
|------------------------------|
|------------------------------|
|-7777----991111--7777---------|
|-77777777991111--777777774444-|
|-5555777777-9-9--555577774444-|
|-----5555------------55552222-|
Chorus Part2
|-------------------------------|
|-------------------------------|
|-7777----991111--7777----------|
|-77777777991111--7777777766764-|
|-5555777777-9-9--5555777766764-|
|-----5555------------555544542-|





Break part 1
|--------------------------------|
|--------------------------------|
|--------------------------------|
|----7777-----7777-----7777------|
|-47-7777--47-7777--47-7777-7777-|
|-47-5555--47-5555--47-5555-7777-|
|-25-------25-------25------5555-|

Break part 2
|------------------------------------------------------------------|
|------------------------------------------------------------------|
|------------------------------------------------------------------|
|----7777-----7777-----7777------99999~~~~~~~~~~~~~~~~~~~~~~~~~~~~-|
|-47-7777--47-7777--47-7777-7777-99999~~~~~~~~~~~~~~~~~~~~~~~~~~~~-|
|-47-5555--47-5555--47-5555-7777-77777~~~~~~~~~~~~~~~~~~~~~~~~~~~~_|
|-25-------25-------25------5555------slide hand down to headstock-|

Any problems or corrections let me know chriswilliams666@gmail.com

Also visit the Tsunami Bomb Fansite @ www.takethereins.co.uk
Comments