Tsunami Bomb - 3 Days And 1000 Nights Chords & Tabs

 

3 Days And 1000 Nights Chords & Tabs

Tsunami Bomb Chords & Tabs

Version: 1 Type: Bass Tab 0 ratings
1 star 2 stars 3 stars 4 stars 5 stars
comments

3 Days And 1000 Nights Bass Tab

-------------------------------------------------------------------------------
                      3 DAYS AND 1000 NIGHTS - Tsunami Bomb
-------------------------------------------------------------------------------

By: banny      banny_skates@hotmail.com
One of Tsunami's Bomb's cool pirate songs

Intro/Verse (listen to song for rhythm)
G|----------------------------------------------|----------------|
D|------3-2--------3-2--------3-2--------3-2----|----------------|
A|--5-5-----4--4-4-----4--5-5-----4--4-4-----0--|-0-0-2-4-5------|
E|----------------------------------------------|----------------|
[ Tab from: http://www.guitartabs.cc/tabs/t/tsunami_bomb/3_days_and_1000_nights_btab.html ]
Pre-Chorus				 (Play before Pre-Chorus)
G|-----------------------------------|
D|-----------------------------------|
A|--5-5-5-5---------5-5-5-5----------|
E|----------6-6-6-6---------6-6-5-5--|

Chorus
G|-------------|
D|-------------|
A|--5>---------|
E|----6>-5>-5>-|

Solo
G|-----------------------------------|-------------|-----------|
D|------3-5-7-7-5-3-----2-3-5-5-7-5--|-------------|-----------|
A|--5-5-------------4-4--------------|--5>---------|--0>-4>-5>-|
E|-----------------------------------|----5>-6>-3>-|-----------|
		(X2)			   (X2)
Outro
G|------------|
D|------------|
A|------------|
E|-0-0-2-4-5--|

===============================================================================


add me if you wanna talk some bomb...happy playing
Comments