Tsol - Word Is Chords & Tabs

 

Word Is Chords & Tabs

Tsol Chords & Tabs

Version: 3 Type: Bass Tab

Word Is Bass Tab

Song: Word Is
Band: TSOL
Album: Weatherd statues
tabbed by: Minason Van
email: flipside217@yahoo.com

G: -----------1----------------------------------1--------------------------|
D: ----3---3---3--1--------------1-1---3---3---3--1-------------1-1---------|
A: ------------------3-3-1-3---3---------------------3-3-1-3---3------------|
E: -------------------------------------------------------------------------|

[ Tab from: http://www.guitartabs.cc/tabs/t/tsol/word_is_btab_ver_3.html ]
G:------------1---------------------------------------------------------------|
D:----3---3----3--1--------------------------------------1---1-1----1-1-1-----|
A:------------------4---4-4---4-3-------1---1-1----3--------------------------|
E:----------------------------------------------------------------------------|

repeat through whole song


Just listen to the song and you'll get it.
Hope you will enjoy this great song and tab.