Tsol - Triangle Chords & Tabs

 

Triangle Chords & Tabs

Tsol Chords & Tabs

Version: 1 Type: Tab 0 ratings
1 star 2 stars 3 stars 4 stars 5 stars
comments

Triangle Tab

Intro:
------0------0------0-----0----|------0------0------0----0-----|
-------0------1------2-----1---|-------0------1------2---1-----|
----1---1--2---2--3---3--2--2--|----1---1--2---2--3---3--2-----|
----2------3------4------3-----|----2------3------4------3-----|
----2------3------4------3-----|----2------3------4------3-----|
----0--------------------------|----0--------------------------|


---0--3-0-------------|---0--3-0-------------|
---0--0-0-------------|---0--0-0-------------|
---0--0-0--3-3-3--3-3-|---0--0-0--3-3-3--3-3-|
---2-------2-2-2--2-2-|---2-------2-2-2--2-2-|
---2-------3-3-3--3-3-|---2-------3-3-3--3-3-|
-0--------------------|-0--------------------|


Verse:
---0--3-0-------------|---0--3-0-------------|
---0--0-0-------------|---0--0-0-------------|
---0--0-0--3-3-3--3-3-|---0--0-0--3-3-3--3-3-|
---2-------2-2-2--2-2-|---2-------2-2-2--2-2-|
---2-------3-3-3--3-3-|---2-------3-3-3--3-3-|
-0--------------------|-0--------------------|


---0--3-0-------------|---0--3-0-------------|
---0--0-0-------------|---0--0-0-------------|
---0--0-0--3-3-3--3-3-|---0--0-0--3-3-3--3-3-|
---2-------2-2-2--2-2-|---2-------2-2-2--2-2-|
---2-------3-3-3--3-3-|---2-------3-3-3--3-3-|
-0--------------------|-0--------------------|


---------------------------------------------|
---------------------------------------------|
-5-5--5-5-5----7-7--7-7-7-7------------------|
-5-5--5-5-5----7-7--7-7-7-7------------------|
-3-3--3-3-3----5-5--5-5-5-5------------------|
---------------------------------------------|


---0--3-0-------------|---0--3-0-------------|
---0--0-0-------------|---0--0-0-------------|
---0--0-0--3-3-3--3-3-|---0--0-0--3-3-3--3-3-|
---2-------2-2-2--2-2-|---2-------2-2-2--2-2-|
---2-------3-3-3--3-3-|---2-------3-3-3--3-3-|
-0--------------------|-0--------------------|


---0--3-0-------------|---0--3-0-------------|
---0--0-0-------------|---0--0-0-------------|
---0--0-0--3-3-3--3-3-|---0--0-0--3-3-3--3-3-|
---2-------2-2-2--2-2-|---2-------2-2-2--2-2-|
---2-------3-3-3--3-3-|---2-------3-3-3--3-3-|
-0--------------------|-0--------------------|


---------------------------------------------|
---------------------------------------------|
-5-5--5-5-5----7-7--7-7-7-7------------------|
-5-5--5-5-5----7-7--7-7-7-7------------------|
-3-3--3-3-3----5-5--5-5-5-5------------------|
---------------------------------------------|


Pre-Chorus:
--2-2--2-2-2-------3-5-3--|
--3-3--3-3-3-----3-3-3-3--|
--4-4--4-4-4--3--3-3-3-3--|
--4-4--4-4-4--5--5--------|
--2-2--2-2-2--5--5--------|
--------------3-----------|


--2-2--2-2-2-------3-5-3--|
--3-3--3-3-3-----3-3-3-3--|
--4-4--4-4-4--3--3-3-3-3--|
--4-4--4-4-4--5--5--------|
--2-2--2-2-2--5--5--------|
--------------3-----------|


--2-2--2-2-2-------3-5-3--|
--3-3--3-3-3-----3-3-3-3--|
--4-4--4-4-4--3--3-3-3-3--|
--4-4--4-4-4--5--5--------|
--2-2--2-2-2--5--5--------|
--------------3-----------|


--------------------------|
--------------------------|
------------/13-13-13-13--|
-4-4-4-4-4-4/13-13-13-13--|
-4-4-4-4-4-4/11-11-11-11--|
-2-2-2-2-2-2--------------|
Palm Mute___|

Chorus:
------------------------------------------------------------|
------------------------------------------------------------|
-0-0--0-0-0--0-0-0-0--0-0-0--2-2--2-2-2--2-2-2-2--2-2-2-----|
-2-2--2-2-2--2-2-2-2--2-2-2--4-4--4-4-4--4-4-4-4--4-4-4-----|
-2-2--2-2-2--2-2-2-2--2-2-2--4-4--4-4-4--4-4-4-4--4-4-4-----|
-0-0--0-0-0--0-0-0-0--0-0-0--2-2--2-2-2--2-2-2-2--2-2-2-----|


------------------------------------------------------------|
------------------------------------------------------------|
-0-0--0-0-0--0-0-0-0--0-0-0--2-2--2-2-2--2-2-2-2--2-2-2-----|
-2-2--2-2-2--2-2-2-2--2-2-2--4-4--4-4-4--4-4-4-4--4-4-4-----|
-2-2--2-2-2--2-2-2-2--2-2-2--4-4--4-4-4--4-4-4-4--4-4-4-----|
-0-0--0-0-0--0-0-0-0--0-0-0--2-2--2-2-2--2-2-2-2--2-2-2-----|

[ Tab from: http://www.guitartabs.cc/tabs/t/tsol/triangle_tab.html ]
------------------------------------------------------------|
------------------------------------------------------------|
-0-0--0-0-0--0-0-0-0--0-0-0--2-2--2-2-2--2-2-2-2--2-2-2-----|
-2-2--2-2-2--2-2-2-2--2-2-2--4-4--4-4-4--4-4-4-4--4-4-4-----|
-2-2--2-2-2--2-2-2-2--2-2-2--4-4--4-4-4--4-4-4-4--4-4-4-----|
-0-0--0-0-0--0-0-0-0--0-0-0--2-2--2-2-2--2-2-2-2--2-2-2-----|


------------------------------------------------------------|
------------------------------------------------------------|
-0-0--0-0-0--0-0-0-0--0-0-0--2-2--2-2-2--2-2-2-2--2-2-2-----|
-2-2--2-2-2--2-2-2-2--2-2-2--4-4--4-4-4--4-4-4-4--4-4-4-----|
-2-2--2-2-2--2-2-2-2--2-2-2--4-4--4-4-4--4-4-4-4--4-4-4-----|
-0-0--0-0-0--0-0-0-0--0-0-0--2-2--2-2-2--2-2-2-2--2-2-2-----|


Guitar Solo:
------------------------------------------------------------|
------------------------------------------------------------|
--------------3-3-3--3-3-------------3-3-3--3-3-------------|
--------------2-2-2--2-2-----------0-2-2-2--2-2-------------|
---------2\0----------------------2-------------------------|
-0-0-0-0------------------0-0-0-0---------------------------|
PM______|              PM________|


------------------------------------------------------------|
------------------------------------------------------------|
------------3-3-3--3-3--------------------------------------|
------------2-2-2--2-2--------------0----------------0-2----|
--------2\0------------------------2-----------0-1-2--------|
-0-0-0-0-------------------0-0-0-0----3^^^^^^^^-------------|
PM______|                PM_______|

---------------------------------------------|
---------------------------------------------|
-5-5--5-5-5----7-7--7-7-7-7------------------|
-5-5--5-5-5----7-7--7-7-7-7------------------|
-3-3--3-3-3----5-5--5-5-5-5------------------|
---------------------------------------------|


Verse:
---0--3-0-------------|---0--3-0-------------|
---0--0-0-------------|---0--0-0-------------|
---0--0-0--3-3-3--3-3-|---0--0-0--3-3-3--3-3-|
---2-------2-2-2--2-2-|---2-------2-2-2--2-2-|
---2-------3-3-3--3-3-|---2-------3-3-3--3-3-|
-0--------------------|-0--------------------|


---0--3-0-------------|---0--3-0-------------|
---0--0-0-------------|---0--0-0-------------|
---0--0-0--3-3-3--3-3-|---0--0-0--3-3-3--3-3-|
---2-------2-2-2--2-2-|---2-------2-2-2--2-2-|
---2-------3-3-3--3-3-|---2-------3-3-3--3-3-|
-0--------------------|-0--------------------|


---------------------------------------------|
---------------------------------------------|
-5-5--5-5-5----7-7--7-7-7-7------------------|
-5-5--5-5-5----7-7--7-7-7-7------------------|
-3-3--3-3-3----5-5--5-5-5-5------------------|
---------------------------------------------|


Chorus:
------------------------------------------------------------|
------------------------------------------------------------|
-0-0--0-0-0--0-0-0-0--0-0-0--2-2--2-2-2--2-2-2-2--2-2-2-----|
-2-2--2-2-2--2-2-2-2--2-2-2--4-4--4-4-4--4-4-4-4--4-4-4-----|
-2-2--2-2-2--2-2-2-2--2-2-2--4-4--4-4-4--4-4-4-4--4-4-4-----|
-0-0--0-0-0--0-0-0-0--0-0-0--2-2--2-2-2--2-2-2-2--2-2-2-----|


------------------------------------------------------------|
------------------------------------------------------------|
-0-0--0-0-0--0-0-0-0--0-0-0--2-2--2-2-2--2-2-2-2--2-2-2-----|
-2-2--2-2-2--2-2-2-2--2-2-2--4-4--4-4-4--4-4-4-4--4-4-4-----|
-2-2--2-2-2--2-2-2-2--2-2-2--4-4--4-4-4--4-4-4-4--4-4-4-----|
-0-0--0-0-0--0-0-0-0--0-0-0--2-2--2-2-2--2-2-2-2--2-2-2-----|


------------------------------------------------------------|
------------------------------------------------------------|
-0-0--0-0-0--0-0-0-0--0-0-0--2-2--2-2-2--2-2-2-2--2-2-2-----|
-2-2--2-2-2--2-2-2-2--2-2-2--4-4--4-4-4--4-4-4-4--4-4-4-----|
-2-2--2-2-2--2-2-2-2--2-2-2--4-4--4-4-4--4-4-4-4--4-4-4-----|
-0-0--0-0-0--0-0-0-0--0-0-0--2-2--2-2-2--2-2-2-2--2-2-2-----|


------------------------------------------------------------|
------------------------------------------------------------|
-0-0--0-0-0--0-0-0-0--0-0-0--2-2--2-2-2--2-2-2-2--2-2-2-----|
-2-2--2-2-2--2-2-2-2--2-2-2--4-4--4-4-4--4-4-4-4--4-4-4-----|
-2-2--2-2-2--2-2-2-2--2-2-2--4-4--4-4-4--4-4-4-4--4-4-4-----|
-0-0--0-0-0--0-0-0-0--0-0-0--2-2--2-2-2--2-2-2-2--2-2-2-----|


Outro:
------0------0------0-----0----|
-------0------1------2-----1---|Repeat this over and over again
----1---1--2---2--3---3--2--2--|while it fades out.
----2------3------4------3-----|
----2------3------4------3-----|
----0--------------------------|
Comments