Tsol - Sounds Of Laughter Chords & Tabs

 

Sounds Of Laughter Chords & Tabs

Tsol Chords & Tabs

Version: 1 Type: Tab 0 ratings
1 star 2 stars 3 stars 4 stars 5 stars
comments

Sounds Of Laughter Tab

Intro:
-----------------------------------|----------------------------------
-----------------------------------|----------------------------------
-4------4/5-------5----------7-----|-4------4/5-------5----------7----
-4------4/5-------5-7------7-7-----|-4------4/5-------5-7------7-7----
-2------2/3-------3-7------7-5-----|-2------2/3-------3-7------7-5----
--------------------5------5-------|--------------------5------5------


-----------------------------------|----------------------------------
-----------------------------------|----------------------------------
-4------4/5-------5----------7-----|-4------4/5-------5----------7----
-4------4/5-------5-7------7-7-----|-4------4/5-------5-7------7-7----
-2------2/3-------3-7------7-5-----|-2------2/3-------3-7------7-5----
--------------------5------5-------|--------------------5------5------


Verse:
-------------------------------------------------|
-------------------------------------------------|
-4--4-4-4-4--5--5-5-5-5--------------7--7-7-7-7--|
-4--4-4-4-4--5--5-5-5-5--7--7-7-7-7--7--7-7-7-7--|
-2--2-2-2-2--3--3-3-3-3--7--7-7-7-7--5--5-5-5-5--|
-------------------------5--5-5-5-5--------------|


------------------------------10----10----10-----|
-----7---------8------10-8-7--10----10----10-----|
---7---7------8--8---------------12^---12^-------|
-9-------9--10-----------------------------------|
-------------------------------------------------|
-------------------------------------------------|


-------------------------------------------------|
-------------------------------------------------|
-4--4-4-4-4--5--5-5-5-5--------------7--7-7-7-7--|
-4--4-4-4-4--5--5-5-5-5--7--7-7-7-7--7--7-7-7-7--|
-2--2-2-2-2--3--3-3-3-3--7--7-7-7-7--5--5-5-5-5--|
-------------------------5--5-5-5-5--------------|


------------------------------10----10----10-----|
-----7---------8------10-8-7--10----10----10-----|
---7---7------8--8---------------12^---12^-------|
-9-------9--10-----------------------------------|
-------------------------------------------------|
-------------------------------------------------|


Chorus:
----------------------------------------------------------------------|
----------------------------------------------------------------------|
-6-6--6-6-6--9-9--9-9-9--6-6--6-6-6--9-9--9-9-9--6-6--6-6-6--7-7--7-7-|
-6-6--6-6-6--9-9--9-9-9--6-6--6-6-6--9-9--9-9-9--6-6--6-6-6--7-7--7-7-|
-4-4--4-4-4--7-7--7-7-7--4-4--4-4-4--7-7--7-7-7--4-4--4-4-4--7-7--7-7-|
----------------------------------------------------------------------|


---------------------------------------------------------------------|
---------------------------------------------------------------------|
-11-11-11-11-11--7-7--7-7-7-7----11-11--11-11-11--7-7--7-7-7-7-------|
-11-11-11-11-11--7-7--7-7-7-7----11-11--11-11-11--7-7--7-7-7-7-------|
-9--9--9--9--9---5-5--5-5-5-5----9--9---9--9--9---5-5--5-5-5-5-------|
---------------------------------------------------------------------|


------------------------------|
------------------------------|
-11-11-11-11-11--7-7--7-7-7-7-|
-11-11-11-11-11--7-7--7-7-7-7-|
-9--9--9--9--9---5-5--5-5-5-5-|
------------------------------|


Second Intro:
-----------------------------------|----------------------------------
-----------------------------------|----------------------------------
-4------4/5-------5/6------6-7-----|-4------4/5-------5/6------6-7----
-4------4/5-------5/6------6-7-----|-4------4/5-------5/6------6-7---
-2------2/3-------3/4------4-5-----|-2------2/3-------3/4------4-5----
-----------------------------------|----------------------------------


-----------------------------------|----------------------------------
-----------------------------------|----------------------------------
-4------4/5-------5/6------6-7-----|-4------4/5-------5/6------6-7----
-4------4/5-------5/6------6-7-----|-4------4/5-------5/6------6-7---
-2------2/3-------3/4------4-5-----|-2------2/3-------3/4------4-5----
-----------------------------------|----------------------------------


Verse:
-------------------------------------------------|
-------------------------------------------------|
-4--4-4-4-4--5--5-5-5-5--------------7--7-7-7-7--|
-4--4-4-4-4--5--5-5-5-5--7--7-7-7-7--7--7-7-7-7--|
-2--2-2-2-2--3--3-3-3-3--7--7-7-7-7--5--5-5-5-5--|
-------------------------5--5-5-5-5--------------|


-------------------------------------------------|
-------------------------------------------------|
-4--4-4-4-4--5--5-5-5-5--------------7--7-7-7-7--|
-4--4-4-4-4--5--5-5-5-5--7--7-7-7-7--7--7-7-7-7--|
-2--2-2-2-2--3--3-3-3-3--7--7-7-7-7--5--5-5-5-5--|
-------------------------5--5-5-5-5--------------|


-------------------------------------------------|
-------------------------------------------------|
-4--4-4-4-4--5--5-5-5-5--------------7--7-7-7-7--|
-4--4-4-4-4--5--5-5-5-5--7--7-7-7-7--7--7-7-7-7--|
-2--2-2-2-2--3--3-3-3-3--7--7-7-7-7--5--5-5-5-5--|
-------------------------5--5-5-5-5--------------|


-------------------------------------------------|
-------------------------------------------------|
-4--4-4-4-4--5--5-5-5-5--------------7--7-7-7-7--|
-4--4-4-4-4--5--5-5-5-5--7--7-7-7-7--7--7-7-7-7--|
-2--2-2-2-2--3--3-3-3-3--7--7-7-7-7--5--5-5-5-5--|
-------------------------5--5-5-5-5--------------|

[ Tab from: http://www.guitartabs.cc/tabs/t/tsol/sounds_of_laughter_tab.html ]
Chorus:
----------------------------------------------------------------------|
----------------------------------------------------------------------|
-6-6--6-6-6--9-9--9-9-9--6-6--6-6-6--9-9--9-9-9--6-6--6-6-6--7-7--7-7-|
-6-6--6-6-6--9-9--9-9-9--6-6--6-6-6--9-9--9-9-9--6-6--6-6-6--7-7--7-7-|
-4-4--4-4-4--7-7--7-7-7--4-4--4-4-4--7-7--7-7-7--4-4--4-4-4--7-7--7-7-|
----------------------------------------------------------------------|


---------------------------------------------------------------------|
---------------------------------------------------------------------|
-11-11-11-11-11--7-7--7-7-7-7----11-11--11-11-11--7-7--7-7-7-7-------|
-11-11-11-11-11--7-7--7-7-7-7----11-11--11-11-11--7-7--7-7-7-7-------|
-9--9--9--9--9---5-5--5-5-5-5----9--9---9--9--9---5-5--5-5-5-5-------|
---------------------------------------------------------------------|


------------------------------|
------------------------------|
-11-11-11-11-11--7-7--7-7-7-7-|
-11-11-11-11-11--7-7--7-7-7-7-|
-9--9--9--9--9---5-5--5-5-5-5-|
------------------------------|


Bridge:

------------------------------------------------------------|
------------------------------------------------------------|
-6-6-6--6-6-6--6-6-6--6-6-6---4-4-4--4-4-4--9-9-9--9-9-9----|
-6-6-6--6-6-6--6-6-6--6-6-6---4-4-4--4-4-4--9-9-9--9-9-9----|
-4-4-4--4-4-4--4-4-4--4-4-4---2-2-2--2-2-2--7-7-7--7-7-7----|
------------------------------------------------------------|


-----------------------------|
-----------------------------|
-----------------------------|
-7-7-7--7-7-7--7-7-7--7-7-7--|
-7-7-7--7-7-7--7-7-7--7-7-7--|
-5-5-5--5-5-5--5-5-5--5-5-5--|



------------------------------------------------------------|
------------------------------------------------------------|
-6-6-6--6-6-6--6-6-6--6-6-6---4-4-4--4-4-4--9-9-9--9-9-9----|
-6-6-6--6-6-6--6-6-6--6-6-6---4-4-4--4-4-4--9-9-9--9-9-9----|
-4-4-4--4-4-4--4-4-4--4-4-4---2-2-2--2-2-2--7-7-7--7-7-7----|
------------------------------------------------------------|


-----------------------------|
-----------------------------|
-----------------------------|
-7-7-7--7-7-7--7-7-7--7-7-7--|
-7-7-7--7-7-7--7-7-7--7-7-7--|
-5-5-5--5-5-5--5-5-5--5-5-5--|


Third Intro:
-----------------------------------|----------------------------------
-----------------------------------|----------------------------------
-4------4/5-------5----------7-----|-4------4/5-------5----------7----
-4------4/5-------5-7------7-7-----|-4------4/5-------5-7------7-7----
-2------2/3-------3-7------7-5-----|-2------2/3-------3-7------7-5----
--------------------5------5-------|--------------------5------5------


-----------------------------------|----------------------------------
-----------------------------------|----------------------------------
-4------4/5-------5----------7-----|-4------4/5-------5----------7----
-4------4/5-------5-7------7-7-----|-4------4/5-------5-7------7-7----
-2------2/3-------3-7------7-5-----|-2------2/3-------3-7------7-5----
--------------------5------5-------|--------------------5------5------


Verse:
-------------------------------------------------|
-------------------------------------------------|
-4--4-4-4-4--5--5-5-5-5--------------7--7-7-7-7--|
-4--4-4-4-4--5--5-5-5-5--7--7-7-7-7--7--7-7-7-7--|
-2--2-2-2-2--3--3-3-3-3--7--7-7-7-7--5--5-5-5-5--|
-------------------------5--5-5-5-5--------------|


------------------------------10----10----10-----|
-----7---------8------10-8-7--10----10----10-----|
---7---7------8--8---------------12^---12^-------|
-9-------9--10-----------------------------------|
-------------------------------------------------|
-------------------------------------------------|


-------------------------------------------------|
-------------------------------------------------|
-4--4-4-4-4--5--5-5-5-5--------------7--7-7-7-7--|
-4--4-4-4-4--5--5-5-5-5--7--7-7-7-7--7--7-7-7-7--|
-2--2-2-2-2--3--3-3-3-3--7--7-7-7-7--5--5-5-5-5--|
-------------------------5--5-5-5-5--------------|


------------------------------10----10----10-----|
-----7---------8------10-8-7--10----10----10-----|
---7---7------8--8---------------12^---12^-------|
-9-------9--10-----------------------------------|
-------------------------------------------------|
-------------------------------------------------|


Chorus:
----------------------------------------------------------------------|
----------------------------------------------------------------------|
-6-6--6-6-6--9-9--9-9-9--6-6--6-6-6--9-9--9-9-9--6-6--6-6-6--7-7--7-7-|
-6-6--6-6-6--9-9--9-9-9--6-6--6-6-6--9-9--9-9-9--6-6--6-6-6--7-7--7-7-|
-4-4--4-4-4--7-7--7-7-7--4-4--4-4-4--7-7--7-7-7--4-4--4-4-4--7-7--7-7-|
----------------------------------------------------------------------|


---------------------------------------------------------------------|
---------------------------------------------------------------------|
-11-11-11-11-11--7-7--7-7-7-7----11-11--11-11-11--7-7--7-7-7-7-------|
-11-11-11-11-11--7-7--7-7-7-7----11-11--11-11-11--7-7--7-7-7-7-------|
-9--9--9--9--9---5-5--5-5-5-5----9--9---9--9--9---5-5--5-5-5-5-------|
---------------------------------------------------------------------|


-------------------|
-------------------|
-11-11-11-11-11-7--|
-11-11-11-11-11-7--|
-9--9--9--9--9--5--|
-------------------|
Comments