Tsol - Code Blue Chords & Tabs

 

Code Blue Chords & Tabs

Tsol Chords & Tabs

Version: 3 Type: Tab 0 ratings
1 star 2 stars 3 stars 4 stars 5 stars
comments

Code Blue Tab

Intro 1 
e|--------------------------| 
B|--------------------------| 
G|--------------------------| 
D|--7--7--7-7---10-9-9-8-7--| 
A|--7--7--7-7---10-9-9-8-7--| 
E|--------------------------| 

Intro 2/Bridge 
e|--------------------------| 
B|--------------------------| 
G|--------------------------| 
D|--5-----5-----5-----5-----| 
A|-7-7--6--6--5--5--6--6----| 
E|--------------------------| 

Last part of the intro 
e|--------------------------| 
B|--------------------------| 
G|--------------------------| 
D|--5-----5-----5-----------| 
A|-7-7--6--6--5--5--6-------| 
E|--------------------------| 

Riff 1 
e|---------------------------------------------| 
B|---------------------------------------------| 
G|------------------------12-12----------------| 
D|-12--12-12-12-12-12-12--12-12--10--10-10-10--| 
A|-12--12-12-12-12-12-12--10-10--10--10-10-10--| 
E|-10--10-10-10-10-10-10----------8---8--8--8--| 

Riff 2a 
e|---------------------------------------------| 
B|---------------------------------------------| 
G|-9-------------------------------------------| 
D|-9--x8---10-------12-------------------------| 
A|-7-------10--x8---12--x16--------------------| 
E|----------8-------10-------------------------| 
[ Tab from: http://www.guitartabs.cc/tabs/t/tsol/code_blue_tab_ver_3.html ]
Riff 2b 
e|---------------------------------------------| 
B|---------------------------------------------| 
G|-9----------------12-------------------------| 
D|-9--x8---10-------12--x1---------------------| 
A|-7-------10--x8---10-------------------------| 
E|----------8----------------------------------| 

Riff 3a 
e|-------------------------------------------------------| 
B|-------------------------------------------------------| 
G|-9-9-9--9-9-9------------------------------------------| 
D|-9-9-9--9-9-9--10-10-10--10-10-10--12-12-12--12-12-12--| 
A|-7-7-7--7-7-7--10-10-10--10-10-10--12-12-12--12-12-12--| 
E|----------------8--8--8---8--8--8--10-10-10--10-10-10--| 
|---| |---| |----| |----| |----| |----| 
PM PM PM PM PM PM 

e|----------------------| 
B|----------------------| 
G|----------------------| 
D|--12-12-12--12-12-12--| 
A|--12-12-12--12-12-12--| 
E|--10-10-10--10-10-10--| 
|----| |----| 
PM PM 

Riff 3b 
e|---------------------------------------| 
B|---------------------------------------| 
G|-9-9-9--9-9-9----------------------12--| 
D|-9-9-9--9-9-9--10-10-10--10-10-10--12--| 
A|-7-7-7--7-7-7--10-10-10--10-10-10--10--| 
E|----------------8--8--8---8--8--8------| 
|---| |---| |----| |----| 
PM PM PM PM 

-Song Structure- 

Intro 1 x1 
Intro 2 x3 
Last part of the intro x1 
Riff 1 x10 
Riff 2a x3 
Riff 2b x1 
Bridge x4 
Riff 3a x3 
Riff 3b x1 
Riff 1 x8 
Riff 2a x3 
Riff 2b x1
Comments