Tsol - Code Blue Chords & Tabs

 

Code Blue Chords & Tabs

Tsol Chords & Tabs

Version: 1 Type: Bass Tab 0 ratings
1 star 2 stars 3 stars 4 stars 5 stars
comments

Code Blue Bass Tab

   
Code blue - T.S.O.L
--------------------
by: 's.o.h.' Bert

Intro:x4
G|-------------------------|
D|---5-----5-----5-----5---|
A|-7---7-6---6-5---5-6---6-|
E|-------------------------|

Verse:x4
G|------------------|
D|------------------|
A|-5-5-5-5-5/10-0-0-|
E|------------------|
[ Tab from: http://www.guitartabs.cc/tabs/t/tsol/code_blue_btab.html ]
Chorus:
G|------------------------------------------------------------------|
D|------------------------------------------------------------------|
A|-7-7-7-7-3-3-3-3-5-5-5-5-5-5-5-5--7-7-7-7-3-3-3-3-5-5-5-5-5-5-5-5-|
E|------------------------------------------------------------------|

G|--------------------------------------------------------------------------|
D|--------------------------------------------------------------------------|
A|-7-7-7-7-3-3-3-3-5-5-5-5-5-5-5-5--7-7-7-7-3-3-3-3/10-10-10-10-10-10-10-10-|
E|--------------------------------------------------------------------------|

Structure:
----------
Intro x4
Verse x4 
Chorus
Intro x4 
Chorus(played slow)x4
Verse x4
Chorus x4

 This is verry easy to play, hope you enjoy playing it!!!!!!!!!! 
Comments