Tsol - Abolish Governmentsilent Majority Chords & Tabs

 

Abolish Governmentsilent Majority Chords & Tabs

Tsol Chords & Tabs

Version: 1 Type: Tab 0 ratings
1 star 2 stars 3 stars 4 stars 5 stars
comments

Abolish Governmentsilent Majority Tab

song: abolish government/silent majority
by: tsol

~ means ring chord
pm means palm mute
v means vibrate string

intro
E-----------------------------|
B-----------------------------|
G-----------------------------|3x
D--9999999999-1414-1515-1212--|
A--7777777777-1212-1313-1010--|
E-----------------------------|

E----------------------------|
B----------------------------|
G----------------------------|1x
D--9999999999-1212-11111111--|
A--7777777777-1010--9-9-9-9--|
E----------------------------|

verse1
E-----------------------------|
B-----------------------------|
G-----------------------------|3x
D--9999999999-1414-1515-1212--|
A--7777777777-1212-1313-1010--|
E-----------------------------|
   \       palm mute       /

E----------------------------|
B----------------------------|
G----------------------------|1x
D--9999999999-1212-11111111--|
A--7777777777-1010--9-9-9-9--|
E----------------------------|
   \palm mute/

drum solo riff
E--------|
B--------|
G--------|
D--9~~~--
A--7~~~--
E--------

verse2
E---------------------------|
B---------------------------|
G---------------------------|2x
D-----9999------------------|
A--77-7777-1010-10-1010-10--|
E--55-------8-8--8--8-8--8--|
           \pm/    \pm/

E----------------------------|
B----------------------------|
G----------------------------|4x
D-----9999-------------------|
A--77-7777-1010101010101010--|
E--55-------8-8-8-8-8-8-8-8--|
           \  palm mute   /
[ Tab from: http://www.guitartabs.cc/tabs/t/tsol/abolish_governmentsilent_majority_tab.html ]
chorus
E---------------------------------------------------------------------------|
B---------------------------------------------------------------------------|
G---------------------------------------------------------------------------|
D-----------5-555555-7-777777-----------------------------------------------|
A--5-555555-3-333333-5-555555-7-777777-7-777777-9-999999-10-10101010101010--|
E--3-333333-------------------5-555555-5-555555-7-777777--8--8-8-8-8-8-8-8--|

verse3
E---------------------------------------------------------------------------|
B---------------------------------------------------------------------------|
G------------9-12-9---------------9-8v------------9-12-9---------------9-12-|
D----9999-10--------12----9999-12---------9999-12--------12----9999-12------|
A-77-7777--------------77-7777---------77-7777--------------77-7777---------|
E-55-------------------55--------------55-------------------55--------------|
bend and slide last note up the neck

outro
E--------------------------------------------|
B--------------------------------------------|
G--------------------------------------------|
D-----9999--12-12-1212-----9999--14-14-1414--|
A--77-7777--10-10-1010--77-7777--12-12-1212--|
E--55-------------------55-------------------|

E-----------------------------------|
B-----------------------------------|
G-----------------------------------|
D-----9999--15-15-1515-----9999-----|
A--77-7777--13-13-1313--77-7777-10--|
E--55-------------------55-------8--|

timing:
intro......1x
verse1.....2x
drum solo..14x
verse2.....1x
chorus.....1x
verse2.....1x
chorus.....1x
verse3.....1x
chorus.....2x
outro......1x
Comments