Truth Corroded - Remove The Face Chords & Tabs

 

Remove The Face Chords & Tabs

Truth Corroded Chords & Tabs

Version: 1 Type: Tab 0 ratings
1 star 2 stars 3 stars 4 stars 5 stars
comments

Remove The Face Tab

Band: Truth Corroded  
Song: Remove the Face

Tabbed: Dwain Doughty (forum name: morbid_death)
E-Mail: adrock13@hotmail.com

Tuning: DADGBE


Intro and verse
-------------------------
------9-9-7------11-11-9-
-12---------12-----------
-------------------------
-------------------------
-------------------------


Chorus
---------------------------------
---------------------------------
---------------------------------
-00000000111111110000000033333333
-00000000111111110000000033333333
-00000000111111110000000033333333


Next bit...
---------------------------------
---------------------------------
---------------------------------
---------------------------------
-1-----3--3/0----1-----3--0------
--------------------------0------

[ Tab from: http://www.guitartabs.cc/tabs/t/truth_corroded/remove_the_face_tab.html ]
Riff 1
----------------------------------
----------------------------------
----------------------------------
----------------------------------
-1-0-1-0-1-44-4-3-1-0-1-0-1-44-4-3
-1-0-1-0-1-44-4-3-1-0-1-0-1-44-4-3


[Back to Chorus]


Next bit...
--------------------------------
--------------------------------
--------------------------------
-------1-1-1-1-0-------1-1-1-4--
-0-0-0-----------0-0-0----------
-0-0-0-----------0-0-0----------


And Then...
--------------------------------
--------------------------------
-----9------9------9------------
-12-----12-----12-----12-12^----
--------------------------------
--------------------------------


[Riff 1]


Next bit...
------------
------------
------------
------------
-1-0-1-0-1--
-1-0-1-0-1--


[Riff 1]


Outro
-------------------------
-------------------------
-------------------------
-0----0----1----3-3-3-1--
-------------------------
-------------------------
Comments