Trustcompany - Without A Trace Chords & Tabs

 

Without A Trace Chords & Tabs

Trustcompany Chords & Tabs

Version: 1 Type: Bass Tab 0 ratings
1 star 2 stars 3 stars 4 stars 5 stars
comments

Without A Trace Bass Tab

   
Artist: TRUSTcompany
Song: Without a Trace
Album: True Parallels
Tabbed by: Kmilongo (kmilo1989@gmail.com)
Tuning: Drop-D Tuning (GDAD)

Intro/Verse (0:03)

G|--------------------------------------|
D|--------------------------------------|
A|--------------------------------------|
D|6-6-4-1---1---1---1---4---4---4---4---| (x2)
                                      ^
                Consider these spaces!|

Chorus (0:30)
[ Tab from: http://www.guitartabs.cc/tabs/t/trustcompany/without_a_trace_btab.html ]
G|--------------------------------|
D|--------------------------------|
A|2---2---2---2-------------------|
D|----------------4---4---4---4---| (x2)
                                ^
          Consider these spaces!|

Verse (0:54)

G|--------------------------------------|
D|--------------------------------------|
A|--------------------------------------|
D|6-6-4-1---1---1---1---4---4---4---4---| (x2)
                                      ^
                Consider these spaces!|

Chorus (1:21)

G|--------------------------------|
D|--------------------------------|
A|2---2---2---2-------------------|
D|----------------4---4---4---4---| (x4)
                                ^
          Consider these spaces!|

Outro (2:09)

G|--------|
D|--------|
A|--------|
D|6-6-4-1~|
         ^
         |Let ring this note
Comments