Trustcompany - The Fear Chords & Tabs

 

The Fear Chords & Tabs

Trustcompany Chords & Tabs

Version: 2 Type: Tab 0 ratings
1 star 2 stars 3 stars 4 stars 5 stars
comments

The Fear Tab

   
#----------------------------------PLEASE NOTE---------------------------------#
#This file is the author's own work and represents their interpretation of the #
#song. You may only use this file for private study, scholarship, or research. #
#------------------------------------------------------------------------------##

Tabbed By: InTheEnd88
Tuning: Drop Db (C# G# C# F# Bb Eb)

Intro:

Eb|----------------------------------|
Bb|----5-5h6p5----------5h6p5------6-|
F#|--5---------5----5---------5---5--|
C#|-7-7-7-----7----7-7-7-----7---7-7-|
G#|----------------------------------|
C#|----------------------------------|

Verse:

Eb|------------------------------------------------------------|
Bb|----6-----5----5h6p5------6-----5h6p5------5-----5h6p5----6-|
F#|--5-----5-----5-----5---5-----5------5---5-----5--------5---|
C#|-7-7---7-7---7-7-------7-7---7-7--------7-7---7-7------7-7--|
G#|------------------------------------------------------------|
C#|------------------------------------------------------------|

Chorus:
[ Tab from: http://www.guitartabs.cc/tabs/t/trustcompany/the_fear_tab_ver_2.html ]
Eb|------------------------------------------------------|
Bb|------------------------------------------------------|
F#|------------------------------------------------------|
C#|-3-3-3-3-3-3-10-10-10-10-10-10-10-8-8-8-8-8-8-8-8-8-8-| x2
G#|-3-3-3-3-3-3-10-10-10-10-10-10-10-8-8-8-8-8-8-8-8-8-8-|
C#|-3-3-3-3-3-3-10-10-10-10-10-10-10-8-8-8-8-8-8-8-8-8-8-|

Bridge:

Eb|--------------------------------------------------------------|
Bb|--------------------------------------------------------------|
F#|--------------------------------------------------------------|
C#|-0-0-0-0-0-0-10-10-10-10-10-10-10-8-8-8-8-8-8-8-8-8-8-8-8/3-3-| x2
G#|-0-0-0-0-0-0-10-10-10-10-10-10-10-8-8-8-8-8-8-8-8-8-8-8-8/3-3-|
C#|-0-0-0-0-0-0-10-10-10-10-10-10-10-8-8-8-8-8-8-8-8-8-8-8-8/3-3-|

Solo (during chorus):

Eb|--8-------8---------------8--8-------8---------------8-6-5--|
Bb|---10-11---10----8-10-11------10-11---10----8-10-11---------|
F#|---------------10-------------------------10----------------|
C#|------------------------------------------------------------|
G#|------------------------------------------------------------|
C#|------------------------------------------------------------|

Outro:

Eb|-----------------------8-|
Bb|----5-----5-----5------6-|
F#|--5-----5-----5-----5----|
C#|-7-7---7-7---7-7---7-7---|
G#|-------------------------|
C#|-------------------------|


Thats it, everything should be there. Any corrections just comment
Comments