Trustcompany - Surfacing Chords & Tabs

 

Surfacing Chords & Tabs

Trustcompany Chords & Tabs

Version: 1 Type: Tab 0 ratings
1 star 2 stars 3 stars 4 stars 5 stars
comments

Surfacing Tab

Band- Trust Company
Song- Surfacing

* = palm mute
^ = bend string

Intro Part 1/Verse 1 (play 4 times)
e#|----------------------------------|
C#|----------------------------------|
G#|----------------------------------|
C#|----------------------------------|
G#|0h1-1p0-0h1-3h4p0-3h4p0-3h4p0-----|
C#|----------------------------------|

Intro Part 2/Verse 2 (play 3 times)
e#|----------------------------------|
C#|----------------------------------|
G#|----------------------------------|
C#|----------------------------------|
G#|0h1-1p0-0h1-3h4p0-3h4p0-3h4p0-----|
C#|0h1-1p0-0h1-3h4p0-3h4p0-3h4p0-----|
[ Tab from: http://www.guitartabs.cc/tabs/t/trustcompany/surfacing_tab.html ]
Verse 3 (play accordingly, listen to song for timing)
e#|----------------------------------|
C#|----------------------------------|
G#|10-11-13-14-----------------------|
C#|x--x--xx-xx-----------------------|
G#|8--9--11-12-----------------------|
C#|----------------------------------|

Chorus (play 2 times, listen to song for timing)
e#|----------------------------------|
C#|----------------------------------|
G#|----------------------------------|
C#|8-6-3-----------------------------|
G#|8-4-1-----------------------------|
C#|8-4-1-----------------------------|

Verse 4 (play 2 times, listen to the song for timing)
e#|----------------------------------|
C#|----------------------------------|
G#|----8^-----------------8^---------|
C#|0-0----0-0-0-0-0-0-0-0------------|
G#|0-0----0-0-0-0-0-0-0-0------------|
C#|0-0----0-0-0-0-0-0-0-0------------|
   * *    * * * * * * * *


Order of play:

Intro Part 1
Intro Part 2
Verse 3
Chorus
Verse 3
Chorus
Verse 1
Verse 2
Chorus
Verse 2 (with pauses, listen to the song)
Comments