Trustcompany - Stronger Chords & Tabs

 

Stronger Chords & Tabs

Trustcompany Chords & Tabs

Version: 2 Type: Tab 0 ratings
1 star 2 stars 3 stars 4 stars 5 stars
comments

Stronger Tab

Trust Company - Stronger

Tabbed by: bseg
Email: bseg2002@hotmail.com

I saw there was no tab for this yet, so I tabbed it out in the beginner form. It may
be easier for some of you to play using the 5th, 4th and 3rd strings for some chords
instead of just barring the bottom strings all the time.

Tuning: Dropped D

Intro:

  Repeat this 4x
E|-------------------------------------------------------------------------|
B|-------------------------------------------------------------------------|
G|-------------------------------------------------------------------------|
D|--2-0-10-0-2-0-----------------------------------------------------------|
A|--2-0-10-0-2-0-----------------------------------------------------------|
D|--2-0-10-0-2-0-----------------------------------------------------------|


Verse:
Couldn't make out what the guitar was, I will try to figure it out


Pre-Chorus:
Play Intro Riff 2x
[ Tab from: http://www.guitartabs.cc/tabs/t/trustcompany/stronger_tab_ver_2.html ]
Chorus:
  Repeat 2x
E|-------------------------------------------------------------------------|
B|-------------------------------------------------------------------------|
G|-------------------------------------------------------------------------|
D|-2-2-2-2-2-2-2-2--0-0-0-0-0-0-0-0--7-7-7-7-7-7-7-7-----------------------|
A|-2-2-2-2-2-2-2-2--0-0-0-0-0-0-0-0--7-7-7-7-7-7-7-7-----------------------|
D|-2-2-2-2-2-2-2-2--0-0-0-0-0-0-0-0--7-7-7-7-7-7-7-7-----------------------|

E|-------------------------------------------------------------------------|
B|-------------------------------------------------------------------------|
G|-------------------------------------------------------------------------|
D|-10-10-10-10-10-10-10-10-------------------------------------------------|
A|-10-10-10-10-10-10-10-10-------------------------------------------------|
D|-10-10-10-10-10-10-10-10-------------------------------------------------|

Bridge:
  Play 2x 
E|-------------------------------------------------------------------------|
B|-------------------------------------------------------------------------|
G|-------------------------------------------------------------------------|
D|-2-2-2-2-2-2-2-2--7-7-7-7-7-7-7-7--10-10-10-10-10-10-10-10---------------|
A|-2-2-2-2-2-2-2-2--7-7-7-7-7-7-7-7--10-10-10-10-10-10-10-10---------------|
D|-2-2-2-2-2-2-2-2--7-7-7-7-7-7-7-7--10-10-10-10-10-10-10-10---------------|


Ending:
E|-----|
B|-----|
G|-----|
D|-2---|
A|-2---|
D|-2---|


ORDER:
Intro
Pre-Chorus (Push you closer to the...ground!)
Chorus (And I am, stronger now...)
Pre-Chorus
Chorus
Bridge (You wanna tear me down...)
Chorus
Bridge
Ending

Note: Rest in between Intro/Pre-Chorus until the verse is tabbed (if there is even guitar).

That's it. Sorry if its too confusing
Comments