Trustcompany - Running From Me Chords & Tabs

 

Running From Me Chords & Tabs

Trustcompany Chords & Tabs

Version: 2 Type: Tab 0 ratings
1 star 2 stars 3 stars 4 stars 5 stars
comments

Running From Me Tab

   
Running From Me-TRUSTcompany
The Lonely Position Of Neutral

Drop Db:
Db Ab Db Gb Bb Eb

< > = harmonics

Intro:

e-----------------------------------------------------------------
b-----------------------------------------------------------------
g-----------------------------------------------------------------
d-----0---------0-----0---0-----0-----0---0-----0-----0---0-----0-
a---3---------3-----3---------3-----3---------3-----3---------3---
d-0-----0---0-----0-----0---0-----0-----0---0-----0-----0---0-----

gtr. 1

e-----------------------------------------------------------------
b-----------------------------------------------------------------
g-----------------------------------------------------------------
d-----0---0-----0-----0---0-----0-----0---0-----0-0-0-0-0-0-0-----
a---3---------3-----3---------3-----3---------3---3-3-3-3-3-3-----
d-3-----3---3-----3-----3---3-----2-----2---2-----2-2-2-2-2-2-----

gtr. 2

e-----------------------------------------------------------------
b-----------------------------------------------------------------
g-----------------------------------------------------------------
d-----------------------------------------------------------------
a-----------------------------------------------------------------
d----------------------------------------------------------<2><2>-

Fig. 1

e-------------------------------------------------------------------------------------
b-------------------------------------------------------------------------------------
g-------------------------------------------------------------------------------------
d-------------------------------------------------------------------------------------
a-0-10-12-0-12-0-10-12-0-10-12-0-12-0-10-12-0-10-12-0-12-0-10-12-0-10-12-0-12-0-10-12-
d-0-10-12-0-12-0-10-12-0-10-12-0-12-0-10-12-0-10-12-0-12-0-10-12-0-10-12-0-12-0-10-12-

e-----------------------------------------------------------------
b-----------------------------------------------------------------
g1010-10--10--1010---1010--10-10-10101010101010101010101010101010-
d1010-10--10--1010---1010--10-10-10101010101010101010101010101010-
a-8-8--8---8---8-8----8-8---8--8--8-8-8-8-8-8-8-8-8-8-8-8-8-8-8-8-
d-8-8--8---8---8-8----8-8---8--8--7-7-7-7-7-7-7-7-7-7-7-7-7-7-7-7-

Verses:

Riff A (gtr. 1)

e-----------------------------------------------------------------
b-----------------------------------------------------------------
g-----5--5-5-5-5---------------------5--5-5-5-5-------------------
d---7-------------------------------------------------------------
a-----------------------------------------------------------------
d-----------------------------------------------------------------

Fig. 2 (gtr. 2)

e-----------------------------------------------------------------
b-----------------------------------------------------------------
g-----------------------------------------------------------------
d--------------------------------10-10-10101010----10101010101010-
a-0-------------------------------8--8--8-8-8-8-----8-8-8-8-8-8-8-
d-0-------------------------------8--8--8-8-8-8-----8-8-8-8-8-8-8-

Riff A cont.

e-----------------------------------------------------------------
b-----------------------------------------------------------------
g------------------------------------5--5-5-5-5-------------------
d----7--7-7-7-7---------------------------------------------------
a-----------------------------------------------------------------
d-----------------------------------------------------------------

Fig. 2 cont.

e-----------------------------------------------------------------
b-----------------------------------------------------------------
g-----------------------------------------------------------------
d-7--7--7-7-7-7------7-7-7-7-7-7-10-10-10101010----10101010101010-
a-5--5--5-5-5-5------5-5-5-5-5-5--8--8--8-8-8-8-----8-8-8-8-8-8-8-
d-5--5--5-5-5-5------5-5-5-5-5-5--8--8--8-8-8-8-----8-8-8-8-8-8-8-

Fig. 1 & Riff A

Chorus:

Fig. 1 (gtr. 1)

e-------------------------------------------------------------------------------------
b-------------------------------------------------------------------------------------
g-------------------------------------------------------------------------------------
d-------------------------------------------------------------------------------------
a-0-10-12-0-12-0-10-12-0-10-12-0-12-0-10-12-0-10-12-0-12-0-10-12-0-10-12-0-12-0-10-12-
d-0-10-12-0-12-0-10-12-0-10-12-0-12-0-10-12-0-10-12-0-12-0-10-12-0-10-12-0-12-0-10-12-

gtr. 1
[ Tab from: http://www.guitartabs.cc/tabs/t/trustcompany/running_from_me_tab_ver_2.html ]
e-----------------------------------------------------------------
b-----------------------------------------------------------------
g1010-10--10--1010---1010--10-10-10101010101010101010101010101010-
d1010-10--10--1010---1010--10-10-10101010101010101010101010101010-
a-8-8--8---8---8-8----8-8---8--8--8-8-8-8-8-8-8-8-8-8-8-8-8-8-8-8-
d-8-8--8---8---8-8----8-8---8--8--7-7-7-7-7-7-7-7-7-7-7-7-7-7-7-7-

Riff B (gtr. 2)

e-----------------------------------------------------------------
b-----------------------------------------------------------------
g10-------10--1010--1010-10101010-10--101010--1010--9-9---9--9--9-
d-x--------x---x-x---x-x--x-x-x-x--x---x-x-x---x-x--x-x---x--x--x-
a-8--------8---8-8---8-8--8-8-8-8--8---8-8-8---8-8--7-7---7--7--7-
d-----------------------------------------------------------------

Bridge: pm

e---------------------------------------------------------------------------------------
b---------------------------------------------------------------------------------------
g---------------------------------------------------------------------------------------
d---------------------------------------------------------------------------------------
a---------------------------------------------------------------------------------------
d-0-0---0--0-0-0-0-0-0-0-0-0-0-0-0--0-<5><5>-0-<5><5>-0-<5>-0-<5><5>-0-<5><5><5><5>-

e---------------------------------------------------------------------------------------
b---------------------------------------------------------------------------------------
g---------------------------------------------------------------------------------------
d---------------------------------------------------------------------------------------
a---------------------------------------------------------------------------------------
d-0-0---0--0-0-0-0-0-0-0-0-0-0-0-0--0-<5><5>-0-<5><5>-0-<5>-0-<5><5>-0-<5><5>-0-<5>-

pm
e-----------------------------------------------------------------
b-----------------------------------------------------------------
g-----------------------------------------------------------------
d-----0---------0-----0---0-----0-----0---0-----0-----0---0-----0-
a---3---------3-----3---------3-----3---------3-----3---------3---
d-0-----0---0-----0-----0---0-----0-----0---0-----0-----0---0-----

e----------------------------------------------------------------------------------
b----------------------------------------------------------------------------------
g----------------------------------------------------------------------------------
d----------------------------------------------------------------------------------
a-0-10-12---0-10-12---0-10-12-8----8-8\7--0-10-12---0-10-12---0-10-12-8----8-8\7-
d-0-10-12---0-10-12---0-10-12-8----8-8\7--0-10-12---0-10-12---0-10-12-8----8-8\7-

Outro Chorus: 

e-----------------------------------------------------------------
b-----------------------------------------------------------------
g1010-10--10--1010---1010--10-10-10101010101010101010101010101010-
d1010-10--10--1010---1010--10-10-10101010101010101010101010101010-
a-8-8--8---8---8-8----8-8---8--8--8-8-8-8-8-8-8-8-8-8-8-8-8-8-8-8-
d-8-8--8---8---8-8----8-8---8--8--7-7-7-7-7-7-7-7-7-7-7-7-7-7-7-7-

e-------------------------------------------------------------------------------------
b-------------------------------------------------------------------------------------
g-------------------------------------------------------------------------------------
d-------------------------------------------------------------------------------------
a-0-10-12-0-12-0-10-12-0-10-12-0-12-0-10-12-0-10-12-0-12-0-10-12-0-10-12-0-12-0-10-12-
d-0-10-12-0-12-0-10-12-0-10-12-0-12-0-10-12-0-10-12-0-12-0-10-12-0-10-12-0-12-0-10-12-

gtr. 1

e-----------------------------------------------------------------
b-----------------------------------------------------------------
g1010-10--10--10-10--1010--10-10--101010--101010--101010--101010--
d1010-10--10--10-10--1010--10-10--101010--101010--101010--101010--
a-8-8--8---8---8--8---8-8---8--8---8-8-8---8-8-8---8-8-8---8-8-8--
d-8-8--8---8---8--8---8-8---8--8---7-7-7---7-7-7---7-7-7---7-7-7--

gtr. 2

e-----------------------------------------------------------------
b-----------------------------------------------------------------
g10-------10--10-10--101010101010-101010--101010--101010--101010--
d-x--------x---x--x---x-x-x-x-x-x--x-x-x---x-x-x---x-x-x---x-x-x--
a-8--------8---8--8---8-8-8-8-8-8--8-8-8---8-8-8---8-8-8---8-8-8--
d-----------------------------------------------------------------

x3                                        then
e---------------------------------------  ------------------------
b---------------------------------------  ------------------------
g---------------------------------------  ------------------------
d---------------------------------------  ------------------------
a-0-0---0---------0-0---0-------0-0---0-  -0-0---0-----0-0---0----
d-0-0---0---------0-0---0-------0-0---0-  -0-0---0-----0-0---0----

thatís all

*from guitar 1*

trevor jones
timmy91199@yahoo.ca
Comments