Trustcompany - Running From Me Chords & Tabs

 

Running From Me Chords & Tabs

Trustcompany Chords & Tabs

Version: 1 Type: Tab 0 ratings
1 star 2 stars 3 stars 4 stars 5 stars
comments

Running From Me Tab

   
Song: Running from me 
Band: Trust Company
Tabber: Jorge Cardenas
E-MAIL: joke_2099@yahoo.com

Key:
// or \\ slide up or down and immediately strum again 
H.A. artificial harmonics  
PM palm mute
b bend
r release

Tuning: Dropped D Flat (Db Ab Db Gb Bb Eb)

INTRO:
Guitar1, clean 
|-----------------|  |-----------------|  |-----------------|
|-----------------|  |-----------------|  |-----------------|
|-----------------|x4|-----------------|x2|-----------------|x2
|-----------------|  |-----------------|  |-----------------|
|---3-5---5---3-5-|  |---3-5---5---3-5-|  |---3-5---5---3-5-|
|-0-----0---0-----|  |-3-----3---3-----|  |-2-----2---2-----|
 PM--------------------------------------------------------


Guitar2
Kicks in with distortion
|-----------------------------------------------------------|
|-----------------------------------------------------------|
|-----------------------------------------------------------|
|-------------------------------------0~~~~~----------5-5---|
|-------------------------------------0~~~~~----------5-5---|
|-------------------------------------0~~~~~----------5-5---|
                                                    A.H..

CHORUS, DISTORTION
|-------------------------------------------------------------------------------
|-------------------------------------------------------------------------------
|-------------------------------------------------------------------------------
|-0-10-12-0-12-0-10-12--0-10-12-0-12-0-10-12--0-10-12-0-12-0-10-12--0-10-12-0-12
|-0-10-12-0-12-0-10-12--0-10-12-0-12-0-10-12--0-10-12-0-12-0-10-12--0-10-12-0-12
|-0-10-12-0-12-0-10-12--0-10-12-0-12-0-10-12--0-10-12-0-12-0-10-12--0-10-12-0-12

---------------------------------------------------------------------------|
---------------------------------------------------------------------------|
----------10101010101010101010101010101010-9-9-9-9-9-9-9-9-9-9-9-9-9-9-9-9-|
-0-10-12--8-8-8-8-8-8-8-8-8-8-8-8-8-8-8-8--7-7-7-7-7-7-7-7-7-7-7-7-7-7-7-7-|
-0-10-12--8-8-8-8-8-8-8-8-8-8-8-8-8-8-8-8--7-7-7-7-7-7-7-7-7-7-7-7-7-7-7-7-|
-0-10-12--8-8-8-8-8-8-8-8-8-8-8-8-8-8-8-8--7-7-7-7-7-7-7-7-7-7-7-7-7-7-7-7-|

VERSE
|-----------------------------------|
|-----------------------------------|
|-----------------------------------| x2
|-0~~~~~---8~~~~~---5~~~~~---8~~~~~-|
|-0~~~~~---8~~~~~---5~~~~~---8~~~~~-|
|-0~~~~~---8~~~~~---5~~~~~---8~~~~~-|

CHORUS x2
VERSE

CHORUS x2
[ Tab from: http://www.guitartabs.cc/tabs/t/trustcompany/running_from_me_tab.html ]
BRIDGE:
GUITAR1, distortion
|---------------------|  |---|
|---------------------|  |---|
|---------------------|x2|---|
|---------------------|  |-0-|
|---------------------|  |-0-|
|-0-0-0-0-0-5-5-5-5-5-|  |-0-|
            A.H. . . .

GUITAR2, clean in the background
|----------------------|
|----------------------|
|----------------------|
|----------------------|
|----------------------|
|-0-10-12-0-12-0-10-12-|
 PM-------------------
 

INTERLUDE
|--------------------------------|
|--------------------------------|
|--------------------------------|x3
|-0-10-12-0-10-12-0-10-12-8~~\\7-|
|-0-10-12-0-10-12-0-10-12-8~~\\7-|
|-0-10-12-0-10-12-0-10-12-8~~\\7-|
 
|--------------------------------------|
|--------------------------------------|
|--------------------------------------|
|-0-10-12-0-10-12-12-12-12-12-12-12-12-|
|-0-10-12-0-10-12-12-12-12-12-12-12-12-|
|-0-10-12-0-10-12-12-12-12-12-12-12-12-|

|------------------------------------------------------------------|
|------------------------------------------------------------------|
|-10101010101010101010101010101010-9-9-9-9-9-9-9-9-9-9-9-9-9-9-9-9-|
|-8-8-8-8-8-8-8-8-8-8-8-8-8-8-8-8--7-7-7-7-7-7-7-7-7-7-7-7-7-7-7-7-|
|-8-8-8-8-8-8-8-8-8-8-8-8-8-8-8-8--7-7-7-7-7-7-7-7-7-7-7-7-7-7-7-7-|
|-8-8-8-8-8-8-8-8-8-8-8-8-8-8-8-8--7-7-7-7-7-7-7-7-7-7-7-7-7-7-7-7-|

CHORUS FOR ENDING
|-------------------------------------------------------------------------------
|-------------------------------------------------------------------------------
|-------------------------------------------------------------------------------
|-0-10-12-0-12-0-10-12--0-10-12-0-12-0-10-12--0-10-12-0-12-0-10-12--0-10-12-0-12
|-0-10-12-0-12-0-10-12--0-10-12-0-12-0-10-12--0-10-12-0-12-0-10-12--0-10-12-0-12
|-0-10-12-0-12-0-10-12--0-10-12-0-12-0-10-12--0-10-12-0-12-0-10-12--0-10-12-0-12

---------------------------------------------------------------------------|
---------------------------------------------------------------------------|
----------10101010101010101010101010101010---------------------------------|
-0-10-12--8-8-8-8-8-8-8-8-8-8-8-8-8-8-8-8--7-7-7-7-7-7-7-7-7-7-7-7-7-7-7-7-|
-0-10-12--8-8-8-8-8-8-8-8-8-8-8-8-8-8-8-8—-8-8-8-8-8-8-8-8-8-8-8—8-8-8-8-8-|
-0-10-12--8-8-8-8-8-8-8-8-8-8-8-8-8-8-8-8--7-7-7-7-7-7-7-7-7-7-7-7-7-7-7-7-|


END
|-----------------------|
|-----------------------|
|-----------------------|
|-0-0-0-0--0–0-0-0--0-0-|
|-0-0-0-0—-0-0-0-0--0-0-|
|-0-0-0-0--0-0-0-0--0-0-|x11
A couple of times this. 

Please rate this song.
This song was kind of tricky because of the D flat tunning, but
Once again “me la pelo”, Hi to my friends in aguacalientes.
Comments