Trustcompany - Running From Me Chords & Tabs

 

Running From Me Chords & Tabs

Trustcompany Chords & Tabs

Version: 1 Type: Bass Tab 0 ratings
1 star 2 stars 3 stars 4 stars 5 stars
comments

Running From Me Bass Tab

   
Band- Trust Company
Song- Running From Me

Tuning: Drop D (D A D G)



Intro/Chorus 
G-|--------------------------------------------------------------------------||
D-|--------------------------------------------------------------------------||
A-|-2h4-4-2h4---2h4-4-2h4---2h4-4-2h4---2h4-4-2h4/0-00-0-00-0----------------||
C#|--------------------------------------------------------------7-77-7-77-7-||

Verse
G-|----------------------------------------------||(X2)
D-|----------------------------------------------||
A-|-4-4~-4-4---0-0~-0-0-----------------0-0~-0-0-||
C#|----------------------------5-5~-5-5----------||
[ Tab from: http://www.guitartabs.cc/tabs/t/trustcompany/running_from_me_btab.html ]
Bridge (softer part)                                              (heavier part)
G-|-------|--------|--------|--------||                G-|--------------------------------------||
D-|-------|--------|--------|--------||                D-|--------------------------------------||
A-|-------|--------|--------|--------||                A-|-2h4-4-2h4-4-2h4p2--0-----------------||
C#|-0~----|-0~-----|-0~-----|-0~-----||                C#|----------------------------7~--------||

Outro
G-|------------------------------------------------||
D-|------------------------------------------------||
A-|------------------------------------------------||
C#|--00-000-000--00-000-000--00-000-000--00-000~---||
Comments