Trustcompany - Lonely Position Of Neutral Chords & Tabs

 

Lonely Position Of Neutral Chords & Tabs

Trustcompany Chords & Tabs

Version: 1 Type: Tab 0 ratings
1 star 2 stars 3 stars 4 stars 5 stars
comments

Lonely Position Of Neutral Tab

   
Band- Trust Company
Album- The Lonely Position Of Neutral

I don't know about you guys,but I thought this was a very good album.That's why I'm
going to tab it for you guys.The chances are that nobody will rate this tab,but I'll
do it anyway since I'm bored out of my mind.

Tracks:
1.Downfall
2.Falling Apart
3.Hover
4.Running From Me
5.Slipping Away
6.Figure 8
7.The Fear
8.Deeper Into You
9.Drop To Zero
10.Finally
11.Take It All

------------------------------------------------------

1.Downfall
Band:Trust Company
Album:The Lonely Position Of Neutral
Tuning:Down 1 Step Drop D

Main Riff
-----------------------------------------------------------------------|
-----------------------------------------------------------------------|
-----------------------------------------------------------------------|
--1h333-1h333-1h333-1h333-1h333-1h333--444444--------------------------|
--1h333-1h333-1h333-1h333-1h333-1h333--444444--------------------------|
--1h333-1h333-1h333-1h333-1h333-1h333--444444--------------------------|

Verse - No guitar

Pre-Chorus 1
-----------------------------------------------------------------------|
-----------------------------------------------------------------------|
-----------------------------------------------------------------------|
--1h333-1h333-1h333-1h333-1h333-1h333--444444--------------------------|
--1h333-1h333-1h333-1h333-1h333-1h333--444444--------------------------|
--1h333-1h333-1h333-1h333-1h333-1h333--444444--------------------------|

Chorus
---------------------------------------------------------------------|
------------666666---------------------------------------------------|
------------666666---------------------------------------------------|
--33333333--444444--66666666-11111111--------------------------------|
--33333333----------66666666-11111111--------------------------------|
--33333333----------66666666-11111111--------------------------------|

Main Riff

Verse

Pre-Chorus 2
------------------------------------------------------------------------|
------------------------------------------------------------------------|
------------------------------------------------------------------------|
--33-----------3--------33---------1--4444--33-------3------33----------|
--33--55555----3-5555---33--55555--1--4444--33-55555-3-5555-33-555555---|
--33-----------3--------33---------1--4444--33-------3------33----------|

Chorus

Bridge (clean)	(distorted)
---------------------------------|--------------------------------------|
---------------------------------|--------------------------------------|
---------------------------------|--------------------------------------|
---------------------------------|--1-3-----3-----3---------------------|
--------4-----4-----4------------|--1-3-4---3-4---3-4-------------------|
--1h3-----1h3---1h3--------------|--1h3---1h3---1h3---------------------|

Chorus 4x

Outro is Pre-Chorus 2 with this at the end

----------------|
----------------|
----------------|
--3-4-----------|
--3-4-----------|
--3-4-----------|

--------------------------------------------------

2.Falling Apart
Band:Trust Company
Album:The Lonely Position Of Neutral
Tuning:Down 1 Step Drop D

Intro
---------------------------------------------------------------|
---------------------------------------------------------------|
---------------------------------------------------------------|
---------------------------------------------------------------|
---------------------------------------------------------------|
---2-2-2-2----2-2-2----2-2-2-2----2-2-2------------------------|x2

Pre Verse
--------------------------------------------------------------|
--------------------------------------------------------------|
--------------------------------------------------------------|
--------------------------------------------------------------|
--------------------------------------------------------------|
-0h1--0h2--0h3--0h2--0h2--0h1--0h2p0--------------------------|x4

Verse
-----------------------------------------------------------------|
-----------------------------------------------------------------|
-----------------------------------------------------------------|
-----------------------------------------------------------------|
-----------------------------------------------------------------|
-----2----------2-2--5-----2-2--2-----2-2--5-----5-5--2----------|

Pre Chorus
-------------------------------------------------------------|
-------------------------------------------------------------|
-------------------------------------------------------------|
-------------------------------------------------------------|
-------------------------------------------------------------|
---2-2-2-2-2-2-2-2-2-2-2-2----5-5-5-5-5-5-5-5-5-5-5-5--------|
Figure out the strum pattern yourself

Chorus
--------------------------------------------------------------|
--------------------------------------------------------------|
--------------------------------------------------------------|
--------------------------------------------------------------|
--------------------------------------------------------------|
----5-5-5-5-5-5----0-0-0-0-0-0----2-2-2-2-2-2----5-5-5-5-5-5--|x2
Figure out the strum pattern.

Verse
-----------------------------------------------------------------|
-----------------------------------------------------------------|
-----------------------------------------------------------------|
-----------------------------------------------------------------|
-----------------------------------------------------------------|
-----2----------2-2--5-----2-2--2-----2-2--5-----5-5--2----------|

Pre Chorus
-------------------------------------------------------------|
-------------------------------------------------------------|
-------------------------------------------------------------|
-------------------------------------------------------------|
-------------------------------------------------------------|
---2-2-2-2-2-2-2-2-2-2-2-2----5-5-5-5-5-5-5-5-5-5-5-5--------|
Figure out the strum pattern yourself

Chorus
--------------------------------------------------------------|
--------------------------------------------------------------|
--------------------------------------------------------------|
--------------------------------------------------------------|
--------------------------------------------------------------|
----5-5-5-5-5-5----0-0-0-0-0-0----2-2-2-2-2-2----5-5-5-5-5-5--|x2
Figure out the strum pattern.

Bridge
-----------------------------------------------------------------|
-----------------------------------------------------------------|
-----------------------------------------------------------------|
-----------------------------------------------------------------|
-----------------------------------------------------------------|
---2-2-2-2----2-2-2----2-2-2-2----2-2-2--------------------------|x2

--------------------------------------------------------------|
--------------------------------------------------------------|
--------------------------------------------------------------|
--------------------------------------------------------------|
--------------------------------------------------------------|
-0h1--0h2--0h3--0h2--0h2--0h1--0h2p0--------------------------|x6

Chorus
--------------------------------------------------------------|
--------------------------------------------------------------|
--------------------------------------------------------------|
--------------------------------------------------------------|
--------------------------------------------------------------|
----5-5-5-5-5-5----0-0-0-0-0-0----2-2-2-2-2-2----5-5-5-5-5-5--|x4

Outro
--------------------------------|
--------------------------------|
--------------------------------|
--------------------------------|
--------------------------------|
----2-2-2-2---------------------|

----------------------------------------------------

3.Hover
Band:Trust Company
Album:The Lonely Position Of Neutral
Tuning:1/2 Step Down Drop D

INTRO: Guitar 1
e---------------------------------------------|
b---------------------------------------------|
g--------14----------14--------------14-------|
d--11-12------11-12--------11---12---------12-|
a---------------------------------------------|
D---------------------------------------------|

Intro and Chorus (# of strokes NOT indicated)

Guitar 1
e-----------------|
b-----------------|
g-----------------|
d--9-----12-----5-|
a--9-----12-----5-|
D--9-----12-----5-|

Guitar 2
e---------------------------------------|
b---------------------------------------|
g--------14----------14--------------14-|
d--11-12------11-12--------11---12------|
a---------------------------------------|
D---------------------------------------|

1st Verse (# of strokes NOT indicated)
e----------|
g----------|
b----------|
d---4----7-|
a---4----5-|
D---4------|

2nd Verse
--------|
--------|
--------|
-4----0-|
-4----0-|
-4----0-|

Bridge: (after verse, listen to this part carefully)
e----------------------------------|
g----------------------------------|
b----------------------------------|
d--4-4-4-4---0-0-0-0---4-4-4-4---0-|
a--4-4-4-4---0-0-0-0---4-4-4-4---0-|
D--4-4-4-4---0-0-0-0---4-4-4-4---0-|

**Chorus**

Bridge 2:(about 7 times)
e---------|
g---------|
b---------|
d--444----|
a--444--5-|
D--444----|
THEN (# of times NOT indicated)
e-----------|
g-----------|
b-----------|
d--444444-0-|
a--444444-0-|
D--444444-0-|

--------------------------------------------------

4.Running From Me
Band:Trust Company
Album:The Lonely Position Of Neutral
Tuning:1/2 Step Down Drop D

Intro:

e-----------------------------------------------------------------|
b-----------------------------------------------------------------|
g-----------------------------------------------------------------|
d-----0---------0-----0---0-----0-----0---0-----0-----0---0-----0-|
a---3---------3-----3---------3-----3---------3-----3---------3---|
d-0-----0---0-----0-----0---0-----0-----0---0-----0-----0---0-----|

gtr. 1

e-----------------------------------------------------------------|
b-----------------------------------------------------------------|
g-----------------------------------------------------------------|
d-----0---0-----0-----0---0-----0-----0---0-----0-0-0-0-0-0-0-----|
a---3---------3-----3---------3-----3---------3---3-3-3-3-3-3-----|
d-3-----3---3-----3-----3---3-----2-----2---2-----2-2-2-2-2-2-----|

gtr. 2

e-----------------------------------------------------------------|
b-----------------------------------------------------------------|
g-----------------------------------------------------------------|
d-----------------------------------------------------------------|
a-----------------------------------------------------------------|
d----------------------------------------------------------<2><2>-|

Fig. 1

e-------------------------------------------------------------------------------------|
b-------------------------------------------------------------------------------------|
g-------------------------------------------------------------------------------------|
d-------------------------------------------------------------------------------------|
a-0-10-12-0-12-0-10-12-0-10-12-0-12-0-10-12-0-10-12-0-12-0-10-12-0-10-12-0-12-0-10-12-|
d-0-10-12-0-12-0-10-12-0-10-12-0-12-0-10-12-0-10-12-0-12-0-10-12-0-10-12-0-12-0-10-12-|

e-----------------------------------------------------------------|
b-----------------------------------------------------------------|
g1010-10--10--1010---1010--10-10-10101010101010101010101010101010-|
d1010-10--10--1010---1010--10-10-10101010101010101010101010101010-|
a-8-8--8---8---8-8----8-8---8--8--8-8-8-8-8-8-8-8-8-8-8-8-8-8-8-8-|
d-8-8--8---8---8-8----8-8---8--8--7-7-7-7-7-7-7-7-7-7-7-7-7-7-7-7-|

Verses:

Riff A (gtr. 1)

e-----------------------------------------------------------------|
b-----------------------------------------------------------------|
g-----5--5-5-5-5---------------------5--5-5-5-5-------------------|
d---7-------------------------------------------------------------|
a-----------------------------------------------------------------|
d-----------------------------------------------------------------|

Fig. 2 (gtr. 2)

e-----------------------------------------------------------------|
b-----------------------------------------------------------------|
g-----------------------------------------------------------------|
d--------------------------------10-10-10101010----10101010101010-|
a-0-------------------------------8--8--8-8-8-8-----8-8-8-8-8-8-8-|
d-0-------------------------------8--8--8-8-8-8-----8-8-8-8-8-8-8-|

Riff A cont.

e-----------------------------------------------------------------|
b-----------------------------------------------------------------|
g------------------------------------5--5-5-5-5-------------------|
d----7--7-7-7-7---------------------------------------------------|
a-----------------------------------------------------------------|
d-----------------------------------------------------------------|

Fig. 2 cont.

e-----------------------------------------------------------------|
b-----------------------------------------------------------------|
g-----------------------------------------------------------------|
d-7--7--7-7-7-7------7-7-7-7-7-7-10-10-10101010----10101010101010-|
a-5--5--5-5-5-5------5-5-5-5-5-5--8--8--8-8-8-8-----8-8-8-8-8-8-8-|
d-5--5--5-5-5-5------5-5-5-5-5-5--8--8--8-8-8-8-----8-8-8-8-8-8-8-|

Fig. 1 & Riff A

Chorus:

Fig. 1 (gtr. 1)

e-------------------------------------------------------------------------------------|
b-------------------------------------------------------------------------------------|
g-------------------------------------------------------------------------------------|
d-------------------------------------------------------------------------------------|
a-0-10-12-0-12-0-10-12-0-10-12-0-12-0-10-12-0-10-12-0-12-0-10-12-0-10-12-0-12-0-10-12-|
d-0-10-12-0-12-0-10-12-0-10-12-0-12-0-10-12-0-10-12-0-12-0-10-12-0-10-12-0-12-0-10-12-|

gtr. 1

e-----------------------------------------------------------------|
b-----------------------------------------------------------------|
g1010-10--10--1010---1010--10-10-10101010101010101010101010101010-|
d1010-10--10--1010---1010--10-10-10101010101010101010101010101010-|
a-8-8--8---8---8-8----8-8---8--8--8-8-8-8-8-8-8-8-8-8-8-8-8-8-8-8-|
d-8-8--8---8---8-8----8-8---8--8--7-7-7-7-7-7-7-7-7-7-7-7-7-7-7-7-|

Riff B (gtr. 2)

e-----------------------------------------------------------------|
b-----------------------------------------------------------------|
g10-------10--1010--1010-10101010-10--101010--1010--9-9---9--9--9-|
d-x--------x---x-x---x-x--x-x-x-x--x---x-x-x---x-x--x-x---x--x--x-|
a-8--------8---8-8---8-8--8-8-8-8--8---8-8-8---8-8--7-7---7--7--7-|
d-----------------------------------------------------------------|

Bridge: pm

e----------------------------------------------------------------------------------------|
b----------------------------------------------------------------------------------------|
g----------------------------------------------------------------------------------------|
d----------------------------------------------------------------------------------------|
a----------------------------------------------------------------------------------------|
d-0-0---0--0-0-0-0-0-0-0-0-0-0-0-0--0-<5><5>-0-<5><5>-0-<5>-0-<5><5>-0-<5><5><5><5>------|

e----------------------------------------------------------------------------------------|
b----------------------------------------------------------------------------------------|
g----------------------------------------------------------------------------------------|
d----------------------------------------------------------------------------------------|
a----------------------------------------------------------------------------------------|
d-0-0---0--0-0-0-0-0-0-0-0-0-0-0-0--0-<5><5>-0-<5><5>-0-<5>-0-<5><5>-0-<5><5>-0-<5>------|

pm
e-----------------------------------------------------------------|
b-----------------------------------------------------------------|
g-----------------------------------------------------------------|
d-----0---------0-----0---0-----0-----0---0-----0-----0---0-----0-|
a---3---------3-----3---------3-----3---------3-----3---------3---|
d-0-----0---0-----0-----0---0-----0-----0---0-----0-----0---0-----|

e-----------------------------------------------------------------------------------|
b-----------------------------------------------------------------------------------|
g-----------------------------------------------------------------------------------|
d-----------------------------------------------------------------------------------|
a-0-10-12---0-10-12---0-10-12-8----8-8\7--0-10-12---0-10-12---0-10-12-8----8-8\7----|
d-0-10-12---0-10-12---0-10-12-8----8-8\7--0-10-12---0-10-12---0-10-12-8----8-8\7----|

Outro Chorus:

e-----------------------------------------------------------------|
b-----------------------------------------------------------------|
g1010-10--10--1010---1010--10-10-10101010101010101010101010101010-|
d1010-10--10--1010---1010--10-10-10101010101010101010101010101010-|
a-8-8--8---8---8-8----8-8---8--8--8-8-8-8-8-8-8-8-8-8-8-8-8-8-8-8-|
d-8-8--8---8---8-8----8-8---8--8--7-7-7-7-7-7-7-7-7-7-7-7-7-7-7-7-|

e-------------------------------------------------------------------------------------|
b-------------------------------------------------------------------------------------|
g-------------------------------------------------------------------------------------|
d-------------------------------------------------------------------------------------|
a-0-10-12-0-12-0-10-12-0-10-12-0-12-0-10-12-0-10-12-0-12-0-10-12-0-10-12-0-12-0-10-12-|
d-0-10-12-0-12-0-10-12-0-10-12-0-12-0-10-12-0-10-12-0-12-0-10-12-0-10-12-0-12-0-10-12-|

gtr. 1

e-----------------------------------------------------------------|
b-----------------------------------------------------------------|
g1010-10--10--10-10--1010--10-10--101010--101010--101010--101010--|
d1010-10--10--10-10--1010--10-10--101010--101010--101010--101010--|
a-8-8--8---8---8--8---8-8---8--8---8-8-8---8-8-8---8-8-8---8-8-8--|
d-8-8--8---8---8--8---8-8---8--8---7-7-7---7-7-7---7-7-7---7-7-7--|

gtr. 2

e-----------------------------------------------------------------|
b-----------------------------------------------------------------|
g10-------10--10-10--101010101010-101010--101010--101010--101010--|
d-x--------x---x--x---x-x-x-x-x-x--x-x-x---x-x-x---x-x-x---x-x-x--|
a-8--------8---8--8---8-8-8-8-8-8--8-8-8---8-8-8---8-8-8---8-8-8--|
d-----------------------------------------------------------------|

x3                                        then
e---------------------------------------  ------------------------|
b---------------------------------------  ------------------------|
g---------------------------------------  ------------------------|
d---------------------------------------  ------------------------|
a-0-0---0---------0-0---0-------0-0---0-  -0-0---0-----0-0---0----|
d-0-0---0---------0-0---0-------0-0---0-  -0-0---0-----0-0---0----|

----------------------------------------------------

5.Slipping Away
Band:Trust Company
Album:The Lonely Position Of Neutral
Tuning:1/2 Step Down Drop D

Intro & 1st Part of Verse (slight distortion)
Eb|-----------------|    |-----------------|
Bb|-----------------|    |-----------------|
Gb|-----------------|    |-----------------|
Db|---5*----7*------| x3 |------5*---------|
Ab|------5*---------|    |---3*----5*------|
Db|------------5*---|    |------------5*---|

Chorus (heavy distortion)
Eb|-----------------------------------------------|
Bb|-----------------------------------------------|
Gb|---10-10-10-10-10-10-10-10-10-10-10-10-10-10---|
Db|----x--x--x--x--x--x--x--x--x--x--x--x--x--x---|
Ab|----8--8--8--8--8--8--8--8--8--8--8--8--8--8---|
Db|-----------------------------------------------|
[ Tab from: http://www.guitartabs.cc/tabs/t/trustcompany/lonely_position_of_neutral_tab.html ]
Chorus (continued)
Eb|---------------------------------------|
Bb|---------------------------------------|
Gb|---------------------------------------|
Db|---10-9h10-9--3~-3-3:-x-3~-3-3:-x-3~---|
Ab|--------------3~-3-3:-x-3~-3-3:-x-3~---|
Db|--------------3~-3-3:-x-3~-3-3:-x-3~---|

Chorus (continued)
Eb|------------------------------|
Bb|------------------------------|
Gb|---5~-5-5-5/9~-10-10-10/12~---|
Db|---x--x-x-x-x---x--x--x--x----|
Ab|---3~-3-3-3/7~--8--8--8/10~---|
Db|------------------------------|

Play 1st Part of Verse x2

2nd Part of Verse x2
Eb|---------------------------------------|
Bb|---------------------------------------|
Gb|------9*-----------------9*-------9*---|
Db|---9*----9*----9*-----9*----9*---------|
Ab|------------9*-----------------9*------|
Db|---------------------------------------|

----------------------------------------------------

6.Figure 8
Band:Trust Company
Album:The Lonely Position Of Neutral
Tuning:1/2 Step Down Drop D

Intro
---------------------------------------------------------------------|
---------------------------------------------------------------------|
---------------------------------------------------------------------|
---------------------------------------------------------------------|
---------------------------------------------------------------------|
---0h2--0h3--0h1--0h1--0h1--0h1--------------------------------------|

Verse - Pick slides on low string

Chorus
---------------------------------------------------------------------|
---------------------------------------------------------------------|
---------------------------------------------------------------------|
---0---------3---------10---------8----------------------------------|
---0---------3---------10---------8----------------------------------|
---0---------3---------10---------8----------------------------------|

Verse

Chorus

Bridge
---------------------------------------------------------------------|
---------------------------------------------------------------------|
---------------------------------------------------------------------|
---------------------------------------------------------------------|
---------------------------------------------------------------------|
---0h2--0h3--0h1--0h1--0h1--0h1--------------------------------------|

Chorus

Outro
---------------------------------------------------------------------|
---------------------------------------------------------------------|
---------------------------------------------------------------------|
---------------------------------------------------------------------|
---------------------------------------------------------------------|
---0h2--0h3--0h1--0h1--0h1--0h1--------------------------------------|

--------------------------------------------------

7.The Fear
Band:Trust Company
Album:The Lonely Position Of Neutral
Tuning:Standard

Intro:
e--------0-0h1h0------------0-0h1h0------------1-------------|
B----1-------------1----1-------------1----1-----------------|
G------2---------2--------2---------2--------2---------------|
D--3------------------3------------------3-------------------|
A------------------------------------------------------------|
E------------------------------------------------------------|

Verse:
e--------1-----------0-----------0-0h1h0---------------1-----|
B----1-----------1-----------1-------------1-------1---------|
G------2-----------2-----------2---------2-----------2-------|
D--3-----------2-----------0---------------------------------|
A------------------------------------------------1-----------|
E------------------------------------------------------------|

e--------0-0h1h0------------0---------0-0h1h0------------1---|
B----1-------------1----1---------1-------------1----1-------|
G------2---------2--------2---------2---------2--------2-----|
D--3------------------2---------0----------------------------|
A--------------------------------------------------1---------|
E------------------------------------------------------------|

chorus
e----------------------------------------|
B----------------------------------------|
G----------------7-----------5-----------|
D---5------------7--(x16)----5--(x32)----|
A---5--(x16)-----5-----------3-----------|
E---3------------------------------------|

bridge:
e------------------------------------------------|
B------------------------------------------------|
G---------------------------7-----------5--------|
D---3-----------5-----------7--(x16)----5--(x16)-|
A---3--(x16)----5--(x16)----5-----------3--------|
E---1-----------3--------------------------------|

solo:
e--8-------8---------------8--8-------8---------------8-6-5--|
B----10-11---10----8-10-11------10-11---10----8-10-11--------|
G---------------10-------------------------10----------------|
D------------------------------------------------------------|
A------------------------------------------------------------|
E------------------------------------------------------------|

outro:
e--------0----------0----------0-----------1---|
B----1----------1----------1----------1----1---|
G------2----------2----------2----------2--2---|
D--3----------3----------3----------3------3---|
A----------------------------------------------|
E----------------------------------------------|

----------------------------------------------------

8.Deeper Into You
Band:Trust Company
Album:The Lonely Position Of Neutral
Tuning:1/2 Step Down

Intro guitar 1
C#----------------------------------------------------------------------------------|
G#----------------------------------------------------------------------------------|
E ---1-2----1-2----1-2----1-2-------------------------------------------------------| 2 times
B --0-------------------------------------------------------------------------------|
F#---------------0------------------------------------------------------------------|
C#--------2-------------0-----------------------------------------------------------|

2nd Intro guitar 1
C#----------------------------------------------------------------------------------|
G#----------------------------------------------------------------------------------|
E ----7-7-7-7-7-7-7-7---------------------------------------------------------------|
B ----7-7-7-7-7-7-7-7-4-4-4-4-4-4-4-4--7-7-7-7-7-7-7-7--2-2-2-2-2-2-2-2-------------|
F#----5-5-5-5-5-5-5-5-4-4-4-4-4-4-4-4--7-7-7-7-7-7-7-7--2-2-2-2-2-2-2-2-------------|
C#--------------------2-2-2-2-2-2-2-2--5-5-5-5-5-5-5-5--0-0-0-0-0-0-0-0-------------|


Intro/Chorus guitar 2
C#---0-4-5----------4-5-7--4-5-7--4-5-7---4-0---0-4-0--------------------------------|
G#--------------------------------------------0--------------------------------------|
E -----------------------------------------------------------------------------------|
B -----------------------------------------------------------------------------------|
F#-----------------------------------------------------------------------------------|
C#-----------------------------------------------------------------------------------|

Pre-Verse both
C#-------------------xxxxxx----------------------------------------------------------|
G#-------------------xxxxxx----------------------------------------------------------|
E -------------------xxxxxx----------------------------------------------------------| 4 times
B ----4---------4-4--xxxxxx----------------------------------------------------------|
F#----4-5-------4-4--xxxxxx----------------------------------------------------------|
C#--0-2---0-0-0-2-2--xxxxxx----------------------------------------------------------|

Verse guitar 1
C#-----------------------------------------------------|
G#-----------------------------------------------------|
E --------------------7-7-7-7-7-7-7-7-7----------------|
B --4-4---4-4---4-4---7-7-7-7-7-7-7-7-7---2---4-4--(2--|times)(second time end with)(2)
F#--4-4---4-4---4-4---5-5-5-5-5-5-5-5-5---2---4-4------|(2)
C#--2-2---2-2---2-2-----------------------0---2-2------|(0)

Verse guitar 2
C#------------------------------------------------------------------------------------|
G#------------------------------------------------------------------------------------|
E --1-1-2-2-4-4-2-2-1-1-2-2--------1-1-2-2-4-4-2-2-1-1--------1-1-2-2-4-4-2-2-1-1-2-2-|
B -----------------------------------------------------2-2----------------------------|
F#------------------------------------------------------------------------------------|
C#------------------------------------------------------------------------------------|

Chorus guitar 1
C#-----------------------------------------------------------------------------------|
G#-----------------------------------------------------------------------------------|
E ----7-7-7-7-7-7-7-7----------------------------------------------------------------|
B ----7-7-7-7-7-7-7-7-4-4-4-4-4-4-4-4--7-7-7-7-7-7-7-7--2-2-2-2-2-2-2-2--------------|
F#----5-5-5-5-5-5-5-5-4-4-4-4-4-4-4-4--7-7-7-7-7-7-7-7--2-2-2-2-2-2-2-2--------------|
C#--------------------2-2-2-2-2-2-2-2--5-5-5-5-5-5-5-5--0-0-0-0-0-0-0-0--------------|

Verse guitar 1
C#-----------------------------------------------------|
G#-----------------------------------------------------|
E --------------------7-7-7-7-7-7-7-7-7----------------|
B --4-4---4-4---4-4---7-7-7-7-7-7-7-7-7---2---4-4--(2--|times)(second time end with)(2)
F#--4-4---4-4---4-4---5-5-5-5-5-5-5-5-5---2---4-4------|(2)
C#--2-2---2-2---2-2-----------------------0---2-2------|(0)


Verse guitar 2
C#------------------------------------------------------------------------------------|
G#------------------------------------------------------------------------------------|
E --1-1-2-2-4-4-2-2-1-1-2-2--------1-1-2-2-4-4-2-2-1-1--------1-1-2-2-4-4-2-2-1-1-2-2-|
B -----------------------------------------------------2-2----------------------------|
F#------------------------------------------------------------------------------------|
C#------------------------------------------------------------------------------------|

Chorus guitar 1
C#-----------------------------------------------------------------------------------|
G#-----------------------------------------------------------------------------------|
E ----7-7-7-7-7-7-7-7----------------------------------------------------------------|
B ----7-7-7-7-7-7-7-7-4-4-4-4-4-4-4-4--7-7-7-7-7-7-7-7--2-2-2-2-2-2-2-2--------------|
F#----5-5-5-5-5-5-5-5-4-4-4-4-4-4-4-4--7-7-7-7-7-7-7-7--2-2-2-2-2-2-2-2--------------|
C#--------------------2-2-2-2-2-2-2-2--5-5-5-5-5-5-5-5--0-0-0-0-0-0-0-0--------------|

Pre-Verse both
C#-------------------xxxxxx----------------------------------------------------------|
G#-------------------xxxxxx----------------------------------------------------------|
E -------------------xxxxxx----------------------------------------------------------| 4 times
B ----4---------4-4--xxxxxx----------------------------------------------------------|
F#----4-5-------4-4--xxxxxx----------------------------------------------------------|
C#--0-2---0-0-0-2-2--xxxxxx----------------------------------------------------------|

Bridge
C#-----------------------------------------------------------------------------------|
G#-----------------------------------------------------------------------------------|
E -----------------------------------------------------------------------------------|
B --4-4---4-4-4------4-4---4-4-4-----------------------------------------------------| 2 times
F#--4-4---4-4-4------4-4---4-4-4-----------------------------------------------------|
C#--2-2---2-2-2------2-2---2-2-2-----------------------------------------------------|

Chorus guitar 1
C#-----------------------------------------------------------------------------------|
G#-----------------------------------------------------------------------------------|
E ----7-7-7-7-7-7-7-7----------------------------------------------------------------|
B ----7-7-7-7-7-7-7-7-4-4-4-4-4-4-4-4--7-7-7-7-7-7-7-7--2-2-2-2-2-2-2-2--------------|
F#----5-5-5-5-5-5-5-5-4-4-4-4-4-4-4-4--7-7-7-7-7-7-7-7--2-2-2-2-2-2-2-2--------------|
C#--------------------2-2-2-2-2-2-2-2--5-5-5-5-5-5-5-5--0-0-0-0-0-0-0-0--------------|


Outro both
C#-----------------------------------------------------------------------------------|
G#-----------------------------------------------------------------------------------|
E -----------------------------------------------------------------------------------|
B -4-4--4-4-4-4-4---4-4--4-4-4-------------------------------------------------------|
F#-4-4--4-4-4-4-4---4-4--4-4-4-------------------------------------------------------|
C#-2-2--2-2-2-2-2---2-2--2-2-2-------------------------------------------------------|


------------------------------------------------

9.Drop To Zero
Band:Trust Company
Album:The Lonely Position Of Neutral
Tuning:Drop D

Intro
E|----------------------------||
B|----------------------------||
G|----------------------------||
D|-------14-13-14-13-13 14----||
A|----------------------------||
D|--0-------------------------||
(4x total)

E|----------------------------------||
B|----------------------------------||
G|----------------------------------||
D|----------------------------------||
A|----------------------------------||
D|---8p0-0-0--8p0-0-0--8p0--8p0-10--||

Then is kicks into the Heavy part
E|--------------------------------------------------------------------------||
B|--------------------------------------------------------------------------||
G|--------------------------------------------------------------------------||
D|--8p0-0-0--8p0-0-0---8p0-0--8p0-0-0--8p0-0-0--6-6-6-6-6-6--/-8-/-10-------||
A|--8p0-0-0--8p0-0-0---8p0-0--8p0-0-0--8p0-0-0--4-4-4-4-4-4-/-6-/--8--------||
D|--8p0-0-0--8p0-0-0---8p0-0--8p0-0-0--8p0-0-0------------------------------||

[at the end of the phrase, I appologize, but I can't seem to
get the correct sliding.  You may want to listen to the song
to make sure that it is correct.]


Verse:

There is not much guitar, it is mostly the bass.

E|-------------------------------||
B|-------------------------------||
G|-------------------------------||
D|-------------------------------||
A|-------------------------------||
D|--14p13-13-14p13-13-14p13------||


Chorus
(I appologize, it is probably not very accurate... )
E|---------------------------------------------------------||
B|---------------------------------------------------------||
G|---------------------------------------------------------||
D|-6-6-6-6-6-6-6-6-/-8----10-------------------------------||
A|-4-4-4-4-4-4-4-4-/-6----8--------------------------------||
D|-4-4-4-4-4-4-4-4-/-6----8--------------------------------||

Back to this section
E|----------------------------------||
B|----------------------------------||
G|----------------------------------||
D|----------------------------------||
A|----------------------------------||
D|---8p0-0-0--8p0-0-0--8p0--8p0-10--||

To the heavy part
E|--------------------------------------------------------------------------||
B|--------------------------------------------------------------------------||
G|--------------------------------------------------------------------------||
D|--8p0-0-0--8p0-0-0---8p0-0--8p0-0-0--8p0-0-0--6-6-6-6-6-6-/-8--/-10-------||
A|--8p0-0-0--8p0-0-0---8p0-0--8p0-0-0--8p0-0-0--4-4-4-4-4-4-/-6--/-8--------||
D|--8p0-0-0--8p0-0-0---8p0-0--8p0-0-0--8p0-0-0------------------------------||

Repeat the Chorus

Outro
E|----------------------||
B|----------------------||
G|----------------------||
D|6-6-6-6-6-6-------6---||
A|4-4-4-4-4-4-----4-----||
D|-------------4-4------||

------------------------------------------

10.Finally
Band:Trust Company
Album:The Lonely Position Of Neutral
Tuning:Standard

PreChorus/PreVerse
--------------------------------------------------------------------|
--------------------------------------------------------------------|
--------------------------------------------------------------------|
---6-6-6-6-6--2-2-2-2--6-6-6-6-6------------------------------------|
---6-6-6-6-6--2-2-2-2--6-6-6-6-6------------------------------------|
---4-4-4-4-4--0-0-0-0--4-4-4-4-4------------------------------------|

Chorus
--------------------------------------------------------------------|
--------------------------------------------------------------------|
--------------------------------------------------------------------|
---6-6-6-6-6-6-6-6-6-6-----2-2-2-2-2-2-2-2-2-2----------------------|
---6-6-6-6-6-6-6-6-6-6-----2-2-2-2-2-2-2-2-2-2----------------------|
---4-4-4-4-4-4-4-4-4-4-----0-0-0-0-0-0-0-0-0-0----------------------|

------------------------------------------------

11.Take It All
Band:Trust Company
Album:The Lonely Position Of Neutral
Tuning:Drop C

3x =======================

|------------------------------|
|------------------------------|
|------------------------------|
|-22---------------------------|
|-22---------------------------|
|-22----0-2-0-2-2-0-2-3-2-0-2--|

=========================

              nh........
|------------------------------|
|------------------------------|
|------------------------------|
|-22---------------------------|
|-22---------------------------|
|-22----0-2-0-2-2-5-5-5--------|

4x =======================

|-----------------------------|
|-----------------------------|
|-----------------------------|
|-2202-2202-0232--------------|
|-2202-2202-0232--------------|
|-2202-2202-0232--------------|

3x =======================

pm..............................
|-------------------------------|
|-------------------------------|
|-------------------------------|
|-------------------------------|
|----------------------3333~ ---|
|-2222~ 0000~ 3333~ ------------|

=========================

|--------------------------------|
|--------------------------------|
|--------------------------------|
|-22-555~ 0-22-55~ --------------|
|-22-333~ 0-22-33~ --------------|
|-22------0-22-------------------|

2x =======================

|-------------------------------|
|-------------------------------|
|-------------------------------|
|-222~ 555~ 555~ ---------------|
|-222~ 555~ 333~ ---------------|
|-222~ 555~ --------------------|

2x =======================

|-------------------------------|
|-------------------------------|
|-------------------------------|
|-22----------------------------|
|-22----------------------------|
|-22----0-2-0-2-2-0-2-3-2-0-2---|

3x =======================

pm..............................
|-------------------------------|
|-------------------------------|
|-------------------------------|
|-------------------------------|
|----------------------3333~----|
|-2222~ 0000~ 3333~ ------------|

=========================

|-------------------------------|
|-------------------------------|
|-------------------------------|
|-22-555~ 0-22-55~ -------------|
|-22-333~ 0-22-33~ -------------|
|-22------0-22------------------|

2x =======================

|-------------------------------|
|-------------------------------|
|-------------------------------|
|-222~ 555~ 555~ ---------------|
|-222~ 555~ 333~ ---------------|
|-222~ 555~ --------------------|

3x =======================

|-------------------------------|
|-------------------------------|
|-------------------------------|
|-22----------------------------|
|-22----------------------------|
|-22----0-2-0-2-2-0-2-3-2-0-2---|

=========================

                nh........

|-------------------------------|
|-------------------------------|
|-------------------------------|
|-22----------------------------|
|-22----------------------------|
|-22----0-2-0-2-2-5-5-5---------|

8x =======================

|-------------------------------|
|-------------------------------|
|-------------------------------|
|-2202-2202-0232----------------|
|-2202-2202-0232----------------|
|-2202-2202-0232----------------|

3x =======================

|-------------------------------|
|-------------------------------|
|-------------------------------|
|-222~ 555~ 555~ ---------------|
|-222~ 555~ 333~ ---------------|
|-222~ 555~ --------------------|

2x========================

|--------------------------------|
|--------------------------------|
|--------------------------------|
|-22-555~ 0-22-55~ 0-------------|
|-22-333~ 0-22-33~ 0-------------|
|-22------0-22-----0-------------|
Comments