Trustcompany - Finally Chords & Tabs

 

Finally Chords & Tabs

Trustcompany Chords & Tabs

Version: 1 Type: Tab 0 ratings
1 star 2 stars 3 stars 4 stars 5 stars
comments

Finally Tab

   
Band- Trust Company
Song- Finally


Standard Tuning - E, A, D, G, B, E
[ Tab from: http://www.guitartabs.cc/tabs/t/trustcompany/finally_tab.html ]
PreChorus/PreVerse
--------------------------------------------------------------------|
--------------------------------------------------------------------|
--------------------------------------------------------------------|
---6-6-6-6-6--2-2-2-2--6-6-6-6-6------------------------------------|
---6-6-6-6-6--2-2-2-2--6-6-6-6-6------------------------------------|
---4-4-4-4-4--0-0-0-0--4-4-4-4-4------------------------------------|

Chorus
--------------------------------------------------------------------|
--------------------------------------------------------------------|
--------------------------------------------------------------------|
---6-6-6-6-6-6-6-6-6-6-----2-2-2-2-2-2-2-2-2-2----------------------|
---6-6-6-6-6-6-6-6-6-6-----2-2-2-2-2-2-2-2-2-2----------------------|
---4-4-4-4-4-4-4-4-4-4-----0-0-0-0-0-0-0-0-0-0----------------------|

PreVerse

PreChorus

Chorus

PreVerse

Chorus

Outro - Play PreVerse/PreChorus
Comments